Oops, an error
Loading. Please wait.

Suspension Acoustic tab

version 2
version 2

Whole song

by Lights
832 views 9 this week
no commentswrite comment
1 2 3 4 5
x 3
add to favorites
×
Save as Personal and add changes to this tab that will be seen only by you. Learn more ›
×
You can save this tab as Personal to edit and correct it or add notes. All changes will be seen only by you. Learn more »
launch autoscroll
font size
0
reset
how to read this tab
guitar tuner
edit
Autoscroll
slow
fast
+/-
esc
set tempo
stop
----------------------------------------------------------------------------
                       SUSPENSION ACOUSTIC - Lights
----------------------------------------------------------------------------
Tabbed by: Notstarboard11
Email: notstarboard@gmail.com

I've tried a few tabs for this song that were alright, but nothing that
sounded great. Here's my attempt. It sounds right to me, but if anything
sounds off feel free to email me with suggestions.

Standard Tuning
CAPO 2 Optional (Everything relative to capo should you choose to use one)

NOTE: The album version of this song is played without a capo, but she puts
a capo on the second fret when playing live. I recommend doing whichever
fits your vocal range best. This tab is based specifically on the album
version though.

NOTE ALSO: Some parts of this song are played with two guitars in the album
version. This tab is intended to be played with one guitar, and that's the
reason for some of the ghost notes. The rest of them are in there to give
you options depending on your skill level.

Intro (Verse + extra note)
e|--------------------------------------|
B|--------------------------------------|
G|--2---4---5-----------2---4---5-------|
D|----------------------------------7---|
A|--3---5---7-----------3---5---7-------|
E|--------------------------------------|

e|--------------------------------------|
B|--------------------------------------|
G|--2---4---5-----------2---4---5-------|
D|--------------------------------------|
A|--3---5---7-----------3---5---7-------|
E|--------------------------------------|

Verse
e|--------------------------|
B|--------------------------|
G|--2---4---5---------------| (x4)
D|--------------------------|
A|--3---5---7---------------|
E|--------------------------|

Verse Variant
e|------------------0----------------------|
B|--------------------------------------0--|
G|--2---4---5-----------2---4---5----------|
D|--------------7-------------------7------|
A|--3---5---7-----------3---5---7----------|
E|-----------------------------------------|

e|------------------0----------------------|
B|-----------------------------------------|
G|--2---4---5-----------2---4---5----------|
D|--------------7--------------------------|
A|--3---5---7-----------3---5---7----------|
E|-----------------------------------------|

Chorus
e|------0-----------1-------------------|
B|--1---------------3---3---0-----------|
G|--2--(0)--2-------2-------0-----------| (x4)
D|--2-------3-------0-------2-----------|
A|-(0)------3---------------2-----------|
E|---------(1)-------------(0)----------|

Verse Variant

Verse

Verse Variant

Chorus

Verse Variant

Bridge
e|-----------------------------------------------------|
B|--1--1--------3--3--------5--5---------8-------------|
G|--2-----0-----4-----0-----5-----5------9---9---------|
D|--3-(3)-------5-(5)-------7-(7)-------10-----10------|
A|--3-----------5-----------7-----------10-(10)--------|
E|-(1)---------(3)---------(5)----------(8)------------|

e|-----------------------------------------------------|
B|--1--1--------3--3--------5----(5)----(8)---(8)------|
G|--2-----0-----4-----0-----5--5-(5)-----9----(9)------|
D|--3-(3)-------5-(5)-------7-(7)(7)---(10)---10-------|
A|--3-----------5-----------7----(7)---(10)--(10)------|
E|-(1)---------(3)---------(5)---(5)-----8----(8)------|

e|-(1)-------------|
B|--1--------------|
G|--2--------------|
D|--3--------------|
A|--3--------------|
E|-(1)-------------|

Chorus

Verse Variant

            
            
Suggest correction
Creating personal tab
Creating personal tab
You can edit any tab online and save it as your Personal.

You can edit, replace or remove any tab part or add personal notes – all changes will be seen only by you.

Personal tabs can be accessed anytime from any device, even offline.
Learn more »
Give kudos to tab author, rate the tab!
1 2 3 4 5
comments
print report bad tab
guest
You may want to rate the tab now too:
select rating
Wanna post a correction for this tab? Suggest correction