Oops, an error
Loading. Please wait.

The Last Thing On Your Mind tab

version 1
version 1

Whole song

by Lights
4,784 views 3 this week
no commentswrite comment
1 2 3 4 5
x 3
add to favorites
×
Save as Personal and add changes to this tab that will be seen only by you. Learn more ›
×
You can save this tab as Personal to edit and correct it or add notes. All changes will be seen only by you. Learn more »
launch autoscroll
font size
0
reset
how to read this tab
guitar tuner
edit
Autoscroll
slow
fast
+/-
esc
set tempo
stop
Lights
The Last Thing On Your Mind
Tabbed by U B the band
Tuning E A D G B e

Legend:
p-pull off                  h-hammer on                 x-muted strum

Intro/verse 1: Guitar 1 (transcribed from keytar)
e|----3---3---3---3---3---3---3---3---3---3---3---3---3---3---3---3---|
B|--5---5---5---5---3---3---3---3---1---1---1---1---3---3---3---3-----|
G|--------------------------------------------------------------------|
D|--------------------------------------------------------------------|
A|--------------------------------------------------------------------|
E|--------------------------------------------------------------------|

Verse 1: Guitar 1 (transcribed from keytar)
e|----3---3---3---3---3---3---3---3---3---3---3---1---1---1---1-------|
B|--5---5---5---5---3---3---3---3---1---1---1---1---------------------|
G|--------------------------------------------------2---2---2---2-----|
D|--------------------------------------------------------------------|
A|--------------------------------------------------------------------|
E|--------------------------------------------------------------------|

Verse 1: Guitar 1 (transcribed from keytar)
e|--3---3---3---3---3---3---3---3---3---3---3---3---1---1---3---3-----|
B|----5---5---5---5---3---3---3---3---1---1---1---1-----------0---0---|
G|----------------------------------------------------2---2-----------|
D|--------------------------------------------------------------------|
A|--------------------------------------------------------------------|
E|--------------------------------------------------------------------|

Chorus: Guitar 2 (Acoustic)
e|--------------------------------------------------3-3-3-3-3-3-3-3---|
B|--1-1-1-1-1-1-1-1-----------------1-1-1-1-1-1-1-1-3-3-3-3-3-3-3-3---|
G|--0-0-0-0-0-0-0-0-----------------0-0-0-0-0-0-0-0-0-0-0-0-0-0-0-0---|
D|--2-2-2-2-2-2-2-2-3-3-3-3-3-3-3-3-2-2-2-2-2-2-2-2-0-0-0-0-0-0-0-0---|
A|--3-3-3-3-3-3-3-3-3-3-3-3-3-3-3-3-3-3-3-3-3-3-3-3-2-2-2-2-2-2-2-2---|
E|------------------1-1-1-1-1-1-1-1-----------------3-3-3-3-3-3-3-3---|

Chorus: Guitar 2 (Acoustic)
e|--------------------------------------------------3-3-3-3-3-3-3-3---|
B|--1-1-1-1-1-1-1-1-----------------1-1-1-1-1-1-1-1-3-3-3-3-3-3-3-3---|
G|--0-0-0-0-0-0-0-0-----------------0-0-0-0-0-0-0-0-0-0-0-0-0-0-0-0-2-|
D|--2-2-2-2-2-2-2-2-3-3-3-3-3-3-3-3-2-2-2-2-2-2-2-2-0-0-0-0-0-0-0-0-2-|
A|--3-3-3-3-3-3-3-3-3-3-3-3-3-3-3-3-3-3-3-3-3-3-3-3-2-2-2-2-2-2-2-2-0-|
E|------------------1-1-1-1-1-1-1-1-----------------3-3-3-3-3-3-3-3---|

Verse 2: Guitar 1 (transcribed from keytar/synth)
e|--------------------------------------------------------------------|
B|--------------------------------------------------------------------|
G|------0---0-----------0---0-----------------------------------------|
D|-------2---2------2----2---2----------------------------------------|
A|--3------------3---------------3-------2--2----2------2--2----2-----|
E|-----------------------------------3----3--3------3----3--3---------|

Verse 2: Guitar 1 (transcribed from keytar/synth)
e|--------------------------------------------------------------------|
B|--------------------------------------------------------------------|
G|--------------------------------------------------------------------|
D|--------------------------------------------------------------------|
A|------3---3----3------3---3----3-------0--0----0------0--0----0-----|
E|--5----5---5------5----5---5-------1----1--1------1----1--1---------|

Verse 2: Guitar 1 (transcribed from keytar/synth)
e|--------------------------------------------------------------------|
B|--------------------------------------------------------------------|
G|------0---0-----------0---0-----------------------------------------|
D|-------2---2------2----2---2----------------------------------------|
A|--3------------3---------------3-------2--2----2------2--2----2-----|
E|-----------------------------------3----3--3------3----3--3---------|

Verse 2: Guitar 1 (transcribed from keytar/synth)
e|--------------------------------------------------------------------|
B|--------------------------------------------------------------------|
G|--------------------------------------------------------------------|
D|--------------------------------------------------------------------|
A|------3---3----3------3---3----3-------0--0----0------2--2----2-----|
E|--5----5---5------5----5---5-------1----1--1------3----3--3---------|

Chorus: Guitar 2 (Acoustic)
e|--------------------------------------------------3-3-3-3-3-3-3-3---|
B|--1-1-1-1-1-1-1-1-----------------1-1-1-1-1-1-1-1-3-3-3-3-3-3-3-3---|
G|--0-0-0-0-0-0-0-0-----------------0-0-0-0-0-0-0-0-0-0-0-0-0-0-0-0---|
D|--2-2-2-2-2-2-2-2-3-3-3-3-3-3-3-3-2-2-2-2-2-2-2-2-0-0-0-0-0-0-0-0---|
A|--3-3-3-3-3-3-3-3-3-3-3-3-3-3-3-3-3-3-3-3-3-3-3-3-2-2-2-2-2-2-2-2---|
E|------------------1-1-1-1-1-1-1-1-----------------3-3-3-3-3-3-3-3---|

Chorus: Guitar 2 (Acoustic)
e|--------------------------------------------------3-3-3-3-3-3-3-3---|
B|--1-1-1-1-1-1-1-1-----------------1-1-1-1-1-1-1-1-3-3-3-3-3-3-3-3---|
G|--0-0-0-0-0-0-0-0-----------------0-0-0-0-0-0-0-0-0-0-0-0-0-0-0-0---|
D|--2-2-2-2-2-2-2-2-3-3-3-3-3-3-3-3-2-2-2-2-2-2-2-2-0-0-0-0-0-0-0-0---|
A|--3-3-3-3-3-3-3-3-3-3-3-3-3-3-3-3-3-3-3-3-3-3-3-3-2-2-2-2-2-2-2-2---|
E|------------------1-1-1-1-1-1-1-1-----------------3-3-3-3-3-3-3-3---|

Bridge: Guitar 1 (transcribed from keytar/synth)
e|--------------------------------------------------------------------|
B|--------------------------------------------------------------------|
G|--------------------------------------------------------------------|
D|------0---2-p0-h2-------0---2-p0-h2-------0---2-p0-h2-------2-p0-h2-|
A|--3-----------------3-----------------3-----------------3-----------|
E|--------------------------------------------------------------------|
                                                                      |
Bridge: Guitar 3 (Distorted)                                          |
e|--------------------------------------------------------------------|
B|--------------------------------------------------------------------|
G|--2----------------------------------5------------------------------|
D|--2----------------------------------5------------------------------|
A|--0----------------------------------3------------------------------|
E|--------------------------------------------------------------------|

Bridge: Guitar 1 (transcribed from keytar/synth)
e|--------------------------------------------------------------------|
B|--------------------------------------------------------------------|
G|--------------------------------------------------------------------|
D|------0---2-p0-h2-------0---2-p0-h2-------0---2-p0-h2-------2-p0-h2-|
A|--3-----------------3-----------------3-----------------3-----------|
E|--------------------------------------------------------------------|
                                                                      |
Bridge: Guitar 3 (Distorted)                                          |
e|--------------------------------------------------------------------|
B|--------------------------------------------------------------------|
G|--2---------x--x--2-2---------x--x-----------x--x------------x--x---|
D|--2---------x--x--2-2---------x--x---3-------x--x--3-3-------x--x---|
A|--0---------x--x--0-0---------x--x---3-------x--x--3-3-------x--x---|
E|------------x--x--------------x--x---1-------x--x--1-1-------x--x---|

Post Bridge: Guitar 3 (Distorted)
e|--------------------------------------------------------------------|
B|--------------------------------------------------------------------|
G|--12---------------------------------7------------------------------|
D|---x---------------------------------x------------------------------|
A|--10---------------------------------5------------------------------|
E|--------------------------------------------------------------------|

Chorus: Guitar 2 (Acoustic)
e|--------------------------------------------------------------------|
B|--1-----------------------------------------------------------------|
G|--0-----------------------------------------------------------------|
D|--2-----------------------------------------------------------------|
A|--3-----------------------------------------------------------------|
E|--------------------------------------------------------------------|

Chorus: Guitar 2 (Acoustic)
e|--------------------------------------------------3-3-3-3-3-3-3-3---|
B|--1-1-1-1-1-1-1-1-----------------1-1-1-1-1-1-1-1-3-3-3-3-3-3-3-3---|
G|--0-0-0-0-0-0-0-0-----------------0-0-0-0-0-0-0-0-0-0-0-0-0-0-0-0---|
D|--2-2-2-2-2-2-2-2-3-3-3-3-3-3-3-3-2-2-2-2-2-2-2-2-0-0-0-0-0-0-0-0---|
A|--3-3-3-3-3-3-3-3-3-3-3-3-3-3-3-3-3-3-3-3-3-3-3-3-2-2-2-2-2-2-2-2---|
E|------------------1-1-1-1-1-1-1-1-----------------3-3-3-3-3-3-3-3---|
                                                                      |
Chorus: Guitar 3 (Distorted))                                         |
e|--------------------------------------------------------------------|
B|--------------------------------------------------------------------|
G|--5-5-5-5-5-5-5-5-----------------5-5-5-5-5-5-5-5-------------------|
D|--5-5-5-5-5-5-5-5-3-3-3-3-3-3-3-3-5-5-5-5-5-5-5-5-5-5-5-5-5-5-5-5---|
A|--3-3-3-3-3-3-3-3-3-3-3-3-3-3-3-3-3-3-3-3-3-3-3-3-5-5-5-5-5-5-5-5---|
E|------------------1-1-1-1-1-1-1-1-----------------3-3-3-3-3-3-3-3---|

Chorus: Guitar 2 (Acoustic)
e|--------------------------------------------------3-3-3-3-3-3-3-3---|
B|--1-1-1-1-1-1-1-1-----------------1-1-1-1-1-1-1-1-3-3-3-3-3-3-3-3---|
G|--0-0-0-0-0-0-0-0-----------------0-0-0-0-0-0-0-0-0-0-0-0-0-0-0-0---|
D|--2-2-2-2-2-2-2-2-3-3-3-3-3-3-3-3-2-2-2-2-2-2-2-2-0-0-0-0-0-0-0-0---|
A|--3-3-3-3-3-3-3-3-3-3-3-3-3-3-3-3-3-3-3-3-3-3-3-3-2-2-2-2-2-2-2-2---|
E|------------------1-1-1-1-1-1-1-1-----------------3-3-3-3-3-3-3-3---|
                                                                      |
Chorus: Guitar 3 (Distorted))                                         |
e|--------------------------------------------------------------------|
B|--------------------------------------------------------------------|
G|--5-5-5-5-5-5-5-5-----------------5-5-5-5-5-5-5-5-------------------|
D|--5-5-5-5-5-5-5-5-3-3-3-3-3-3-3-3-5-5-5-5-5-5-5-5-5-5-5-5-5-5-5-5---|
A|--3-3-3-3-3-3-3-3-3-3-3-3-3-3-3-3-3-3-3-3-3-3-3-3-5-5-5-5-5-5-5-5---|
E|------------------1-1-1-1-1-1-1-1-----------------3-3-3-3-3-3-3-3---|

Chorus: Guitar 2 (Acoustic)
e|--------------------------------------------------3-3-3-3-3-3-3-3---|
B|--1-1-1-1-1-1-1-1-----------------1-1-1-1-1-1-1-1-3-3-3-3-3-3-3-3---|
G|--0-0-0-0-0-0-0-0-----------------0-0-0-0-0-0-0-0-0-0-0-0-0-0-0-0---|
D|--2-2-2-2-2-2-2-2-3-3-3-3-3-3-3-3-2-2-2-2-2-2-2-2-0-0-0-0-0-0-0-0---|
A|--3-3-3-3-3-3-3-3-3-3-3-3-3-3-3-3-3-3-3-3-3-3-3-3-2-2-2-2-2-2-2-2---|
E|------------------1-1-1-1-1-1-1-1-----------------3-3-3-3-3-3-3-3---|
                                                                      |
Chorus: Guitar 3 (Distorted))                                         |
e|--------------------------------------------------------------------|
B|--------------------------------------------------------------------|
G|--5-5-5-5-5-5-5-5-----------------5-5-5-5-5-5-5-5-------------------|
D|--5-5-5-5-5-5-5-5-3-3-3-3-3-3-3-3-5-5-5-5-5-5-5-5-5-5-5-5-5-5-5-5---|
A|--3-3-3-3-3-3-3-3-3-3-3-3-3-3-3-3-3-3-3-3-3-3-3-3-5-5-5-5-5-5-5-5---|
E|------------------1-1-1-1-1-1-1-1-----------------3-3-3-3-3-3-3-3---|

Chorus: Guitar 2 (Acoustic)
e|--------------------------------------------------------------------|
B|--------------------------------------------------------------------|
G|--2-----------------------------------------------------------------|
D|--2-----------------------------------------------------------------|
A|--0-----------------------------------------------------------------|
E|--------------------------------------------------------------------|
                                                                      |
Chorus: Guitar 3 (Distorted)                                          |
e|--------------------------------------------------------------------|
B|--------------------------------------------------------------------|
G|--------------------------------------------------------------------|
D|--7-----------------------------------------------------------------|
A|--7-----------------------------------------------------------------|
E|--5-----------------------------------------------------------------|

Finished

            
            
Suggest correction
Creating personal tab
Creating personal tab
You can edit any tab online and save it as your Personal.

You can edit, replace or remove any tab part or add personal notes – all changes will be seen only by you.

Personal tabs can be accessed anytime from any device, even offline.
Learn more »
Give kudos to tab author, rate the tab!
1 2 3 4 5
comments
print report bad tab
guest
You may want to rate the tab now too:
select rating
Wanna post a correction for this tab? Suggest correction