Oops, an error
Loading. Please wait.

The Listening Tab

version 1
version 1

Acoustic

Whole song

9,115 views 1 this week
no commentswrite comment
1 2 3 4 5
excellent!
x 3
add to favorites
launch autoscroll
font size
0
reset
how to read this tab
guitar tuner
Autoscroll
slow
fast
+/-
esc
set tempo
stop
Help us to improve Ultimate-Guitar.com Take our survey!
×
Author
Capo
2nd fret
Lights
The Listening (Acoustic)
Tabbed by U B the band
Tuning E A D G B e

This is the Acoustic Version of “The Listening” that LIGHTS has on her
Official Website. It’s Capo’d a half step lower than the album version.

CAPO 2nd FRET

Verse 1: Guitar 1 (Acoustic)
e|--0-----------------------------------------------------------------|
B|--1--------------------------------1--------------------------------|
G|--0--------------------------------2--------------------------------|
D|--2--------------------------------2--------------------------------|
A|--3--------------------------------0--------------------------------|
E|--------------------------------------------------------------------|

Verse 1: Guitar 1 (Acoustic)
e|--0-0---0-0--000--0-0---0-0--000------------------------------------|
B|--1-1---1-1--111--1-1---1-1--111---0-0---0-0--000-------------------|
G|--0-0---0-0--000--0-0---0-0--000---2-2---2-2--222--2-2-2-2-2-2-2-2--|
D|--2-2---2-2--222--2-2---2-2--222---2-2---2-2--222--3-3-3-3-3-3-3-3--|
A|--3-----3----333--3-----3----333---0-----0----000--3-3-3-3-3-3-3-3--|
E|---------------------------------------------------1-1-1-1-1-1-1-1--|

Chorus: Guitar 1 (Acoustic) PLAY 3 TIMES
e|--0-0---0-0--000----------------------------------------------------|
B|--1-1---1-1--111--0-0---0-0--000---1-1---1-1--111-------------------|
G|--0-0---0-0--000--0-0---0-0--000---2-2---2-2--222--2-2---2-2--222---|
D|--2-2---2-2--222--2-2---2-2--222---2-2---2-2--222--3-3---3-3--333---|
A|--3-----3----333--2-----2----222---0-----0----000--3-3---3-3--333---|
E|------------------0-----0----000-------------------1-----1----111---|

Verse 2: Guitar 1 (Acoustic)
e|--0-0---0-0--000--0-0---0-0--000------------------------------------|
B|--1-1---1-1--111--1-1---1-1--111---0-0---0-0--000--0-0---0-0--000---|
G|--0-0---0-0--000--0-0---0-0--000---2-2---2-2--222--2-2---2-2--222---|
D|--2-2---2-2--222--2-2---2-2--222---2-2---2-2--222--2-2---2-2--222---|
A|--3-----3----333--3-----3----333---0-----0----000--0-----0----000---|
E|--------------------------------------------------------------------|

Verse 2: Guitar 1 (Acoustic)
e|--0-0---0-0--000--0-0---0-0--000------------------------------------|
B|--1-1---1-1--111--1-1---1-1--111---0-0---0-0--000-------------------|
G|--0-0---0-0--000--0-0---0-0--000---2-2---2-2--222--2-2-2-2-2-2-2-2--|
D|--2-2---2-2--222--2-2---2-2--222---2-2---2-2--222--3-3-3-3-3-3-3-3--|
A|--3-----3----333--3-----3----333---0-----0----000--3-3-3-3-3-3-3-3--|
E|---------------------------------------------------1-1-1-1-1-1-1-1--|

Chorus: Guitar 1 (Acoustic) PLAY 4 TIMES
e|--0-0---0-0--000----------------------------------------------------|
B|--1-1---1-1--111--0-0---0-0--000---1-1---1-1--111-------------------|
G|--0-0---0-0--000--0-0---0-0--000---2-2---2-2--222--2-2---2-2--222---|
D|--2-2---2-2--222--2-2---2-2--222---2-2---2-2--222--3-3---3-3--333---|
A|--3-----3----333--2-----2----222---0-----0----000--3-3---3-3--333---|
E|------------------0-----0----000-------------------1-----1----111---|

Bridge: Guitar 1 (Acoustic)
e|--1------1--------0------0---------3------3--------1------1---------|
B|--3------3--------1------1---------3------3--------3------3---------|
G|--2------2--------0------0---------0------0--------2------2---------|
D|--0------0--------2------2---------0------0--------0------0---------|
A|--0------0--------3------3---------2------2--------0------0---------|
E|-----------------------------------3------3-------------------------|

Bridge: Guitar 1 (Acoustic)
e|-----------------------------------3-3---3-3--333--1-1---1-1--111---|
B|--1-1---1-1--111--1-1---1-1--111---3-3---3-3--333--3-3---3-3--333---|
G|--2-2---2-2--222--0-0---0-0--000---0-0---0-0--000--2-2---2-2--222---|
D|--3-2---3-2--333--2-2---2-2--222---0-0---0-0--000--0-0---0-0--000---|
A|--3-----3----333--3-----3----333---2-----2----222--0-----0----000---|
E|--1-----1----111-------------------3-----3----333-------------------|

Bridge: Guitar 1 (Acoustic)
e|-----------------------------------3-3-3-3-3-3-3-3-1-1-1-1-1-1-1-1--|
B|------------------1-1-1-1-1-1-1-1--3-3-3-3-3-3-3-3-3-3-3-3-3-3-3-3--|
G|--2-2-2-2-2-2-2-2-0-0-0-0-0-0-0-0--0-0-0-0-0-0-0-0-2-2-2-2-2-2-2-2--|
D|--3-2-3-2-3-3-3-3-2-2-2-2-2-2-2-2--0-0-0-0-0-0-0-0-0-0-0-0-0-0-0-0--|
A|--3-3-3-3-3-3-3-3-3-3-3-3-3-3-3-3--2-2-2-2-2-2-2-2-0-0-0-0-0-0-0-0--|
E|--1-1-1-1-1-1-1-1------------------3-3-3-3-3-3-3-3------------------|

Chorus: Guitar 1 (Acoustic) PLAY 3 TIMES
e|--0-0---0-0--000----------------------------------------------------|
B|--1-1---1-1--111--0-0---0-0--000---1-1---1-1--111-------------------|
G|--0-0---0-0--000--0-0---0-0--000---2-2---2-2--222--2-2---2-2--222---|
D|--2-2---2-2--222--2-2---2-2--222---2-2---2-2--222--3-3---3-3--333---|
A|--3-----3----333--2-----2----222---0-----0----000--3-3---3-3--333---|
E|------------------0-----0----000-------------------1-----1----111---|

Chorus: Guitar 1 (Acoustic) PLAY 1 TIME
e|--0-0---0-0--000------------------------------------------------0---|
B|--1-1---1-1--111--0-0---0-0--000---1-1---1-1--111---------------1---|
G|--0-0---0-0--000--0-0---0-0--000---2-2---2-2--222--2------------0---|
D|--2-2---2-2--222--2-2---2-2--222---2-2---2-2--222--3------------2---|
A|--3-----3----333--2-----2----222---0-----0----000--3------------3---|
E|------------------0-----0----000-------------------1----------------|

Finished
Suggest correction
Give kudos to tab author, rate the tab!
1 2 3 4 5
comments
print report bad tab
guest
You may want to rate the tab now too:
select rating
Please do not post tabs as comments. Select "correction" instead!