Oops, an error
Loading. Please wait.

Timing Is Everything Tab

3,978 views 1 this week
no commentswrite comment
1 2 3 4 5
x 5
add to favorites
launch autoscroll
font size
0
reset
how to read this tab
guitar tuner
Autoscroll
slow
fast
+/-
esc
set tempo
stop
Help us to improve Ultimate-Guitar.com Take our survey!
×
Author
Difficulty
novice
Artist: Lights
Song: Timing is Everything (Secret TV Acoustic Session)
Album: Siberia
Tuning: Standard

Reference Video: http://www.youtube.com/watch?v=whPdzbuOrhE 

Intro

e |-0--x--0---0--x--0----0--x--0--|
B |-0--x--0---0--x--0----4--x--4--|
G |-6--x--13--6--x--13---4--x--4--|
D |-7--x--14--7--x--14---6--x--6--|
A |-7--x--14--7--x--14---6--x--6--|     
E |-x--x--x---x--x--x----x--x--x--|

Verse 1

e |-0--x--0---0--x--0----0--x--0--|
B |-0--x--0---0--x--0----4--x--4--|
G |-6--x--13--6--x--13---4--x--4--|
D |-7--x--14--7--x--14---6--x--6--|
A |-7--x--14--7--x--14---6--x--6--|     
E |-x--x--x---x--x--x----x--x--x--|

You were walking in the sunset again without a hassle
In the interim, a princess was in another castle
Rolling different knocks, the first days and nights
In the busy towns, if we hadn't walked the same way
Well, I end up on your ground

Chorus

e |-0----4---4---x----|
B |-2----5---4---x----|
G |-2----6---4---x----|
D |-4----6---6---x----|
A |-4----4---6---x----|         
E |-x----x---4---x----|

There I was, none the wiser
Both of us, different trajectories
Who'd have thought we'd be right here in this spot
Timing is everything
Timing is everything

Interlude

e |-0--x--0---0--x--0----0--x--0--|
B |-0--x--0---0--x--0----4--x--4--|
G |-6--x--13--6--x--13---4--x--4--|
D |-7--x--14--7--x--14---6--x--6--|
A |-7--x--14--7--x--14---6--x--6--|     
E |-x--x--x---x--x--x----x--x--x--|

Verse 2

e |-0--x--0---0--x--0----0--x--0--|
B |-0--x--0---0--x--0----4--x--4--|
G |-6--x--13--6--x--13---4--x--4--|
D |-7--x--14--7--x--14---6--x--6--|
A |-7--x--14--7--x--14---6--x--6--|     
E |-x--x--x---x--x--x----x--x--x--|

Seems impossible to time it out right when you get no hints
It's a freaky world we live in, but tonight we got our moment

Chorus

Interlude

e |-0----0-----|
B |-2----4-----|
G |-2----4-----|
D |-4----6-----|
A |-4----6-----|        
E |-x----x-----|

Timing is everything
Timing is everything

Bridge

e |-0--x---4--x---0--x--0--x----|
B |-4--x---4--x---2--x--4--x----|
G |-4--x---4--x---2--x--4--x----|
D |-6--x---6--x---4--x--6--x----|
A |-6--x---6--x---4--x--6--x----|       
E |-x--x---4--x---x--x--x--x----|

You don't know
You've got to trust it will go
If you just roll with the punches, your guts, and your hunches

Chorus

Outro 

e |-0--x--0---0--x--0----0--x--0--|
B |-0--x--0---0--x--0----4--x--4--|
G |-6--x--13--6--x--13---4--x--4--|
D |-7--x--14--7--x--14---6--x--6--|
A |-7--x--14--7--x--14---6--x--6--|     
E |-x--x--x---x--x--x----x--x--x--|
Suggest correction
comments
print report bad tab
guest
You may want to rate the tab now too:
select rating
Wanna post a correction for this tab? Suggest correction