Oops, an error
Loading. Please wait.

Become The Enemy bass

76 views 1 this week
no commentswrite comment
1 2 3 4 5
3 more votes to show rating
add to favorites
×
Save as Personal and add changes to this tab that will be seen only by you. Learn more ›
×
You can save this tab as Personal to edit and correct it or add notes. All changes will be seen only by you. Learn more »
launch autoscroll
font size
0
reset
guitar tuner
edit
Autoscroll
slow
fast
+/-
esc
set tempo
stop
About this tab version
Full tab for bass, beginning to end. Was this info helpful? Yes No
Artist/Song:  Like a Storm - "Become the Enemy"
Album:        Awaken the Fire
Tuning:       B standard (or 5 string bass)
tabbed by:    jjhand

Song is in 4/4 time so measure lines mark every 4 beats.

[Intro]

D|--------------------|----------------|--------------------|-----------------------|
A|--------------------|----------------|--------------------|-----------------------|
E|--------------------|----------------|--------------------|-----------------------|
B|-2--2----0--2--2----|----------------|-2--2----0--2--2----|-0--0--0--0--0--0-/12\-|

D|-------------------|--------------------|-------------------|---------------------|
A|-------------------|--------------------|-------------------|---------------------|
E|-------------------|------5---4---------|-------------------|------5---4----------|
B|-2--2-----2--2-----|-2--2---------5--5--|-2--2------2--2----|-2--2---------5--7\5-|



[Verse]

D|-----------------|-----------------|-----------------|-----------------|
A|-2---------------|-2---------------|-----------------|-----------------|
E|-----------------|-----------------|-----------------|-----------------|
B|---2-2-2-2-2-2-2-|---2-2-2-2-2-2-2-|-2---2-2---2---2-|---2-2-2---2-0---|

D|-----------------|-----------------|-----------------|-----------------|
A|-2---------------|-2-----3---------|-----------------|-----------------|
E|-----------------|-----------------|-----------------|-----------------|
B|---2-2-2-2-2-2-2-|---2-2---2-2-2-2-|-2---2-2---2---2-|---2-2-2---5-0---|

D|-----------------|--------------------|-------------------------|------------------|
A|-----------------|-------9/11---9-----|-------------------------|------------------|
E|-----------------|--------------------|-------------------------|------------------|
B|-5-5-5-5-5-5-5-5-|-7-7-7--------------|-10-10-10-10-10-10-10-10-|-0-0-0-/7-0-0-0-0-|



[Prechorus]

D|-------------------|--------------------|-------------------|--------------------|
A|-------------------|--------------------|-------------------|--------------------|
E|-------------------|------5---4---------|-------------------|------5---4---------|
B|-2--2-----2--2-----|-2--2---------5--5--|-2--2------2--2----|-2--2---------5--7\-|

D|-------------------|--------------------|-------------------------|
A|-------------------|--------------------|-------------------------|
E|-------------------|------5---4---------|-------------------------|
B|-2--2-----2--2-----|-2--2---------5--5--|-2--2--2--2--2--2--2--2--|

D|----------------------------------------------|
A|----------------------------------------------|
E|----------------------------------------------| last 8 notes are 16ths
B|-/14---14---14---14---12h14-14-14-12h14-14-14-|



[Chorus]

D|----------------------|-----------------------|-----------------------|
A|----------------------|-----------------------|-----------------------|
E|----------------------|-----------------------|-----------------------|
B|-0----0----0----0-0---|-2----2----2----2-2/---|-12---12----0----0-0---|

D|-----------------------------|----------------------|----------------------|
A|-----------------------------|----------------------|----------------------|
E|--------------7h9-9-9-7h9-9--|----------------------|----------------------|
B|-2----2----2-----------------|-7----7----0----0-0---|-2----2----2----2-2---|

D|------------------------|-------------------|---------------------|
A|------------------------|-------------------|---------------------|
E|------------------------|-------------------|-------5---4---------|
B|-5----5----7--7--0------|-2--2-----2--2-----|-2--2----------5--5--|



[Verse 2]
    Note that there is 1 measure less than Verse 1 has
D|-------------------|---------------|--------------------|----------------------|
A|-------------------|---------------|--------------------|----------------------|
E|-------------------|-----------12\-|--------------------|----------------------|
B|--rest-------------|---------------|-2----2--2----2---2-|---2--2--2-----2--0---|

D|------------------------|------------------------|---------------------|
A|-2----------------------|-2--------3-------------|---------------------|
E|------------------------|------------------------|---------------------|
B|----2--2--2--2--2--2--2-|----2--2-----2--2--2--2-|-2-----2--2----2--0--|

D|-----------------|--------------------|-------------------------|---------------------|
A|-----------------|-------9/11---9-9---|-------------------------|-14-14-14-14-14-14---|
E|-----------------|--------------------|-------------12-12-14----|---------------------|
B|-5-5-5-5-5-5-5-5-|-7-7-7--------------|-10-10-10-10-------------|-------------------0-|



[Prechorus 2]

D|-------------------|--------------------|-------------------|--------------------|
A|-------------------|--------------------|-------------------|--------------------|
E|-------------------|------5---4---------|-------------------|------5---4---------|
B|-2--2-----2--2-----|-2--2---------5--5--|-2--2------2--2----|-2--2---------5--7\-|

D|-------------------|--------------------|-------------------------|
A|-------------------|--------------------|-------------------------|
E|-------------------|------5---4---------|-------------------------|
B|-2--2-----2--2-----|-2--2---------5--5--|-2--2--2--2--2--2--2--2--|

D|-----------------------------------|
A|-----------------------------------|
E|-----------------------------------|
B|-/14--14--14--12--12--12---9-------|



[Chorus 2]

D|----------------------|-----------------------|-----------------------|
A|----------------------|-----------------------|-----------------------|
E|----------------------|-----------------------|-----------------------|
B|-0----0----0----0-0---|-2----2----2----2-2/---|-12---12----0----0-0---|

D|-----------------------------|----------------------|----------------------|
A|-----------------------------|----------------------|----------------------|
E|--------------7h9-9-9-7h9-9--|----------------------|----------------------|
B|-2----2----2-----------------|-7----7----0----0-0---|-2----2----2----2-2---|

D|-----------------------------|
A|--------------12----12-14----|
E|---12---14-14----14----------|
B|-----------------------------|


[Bridge]
D|---------------------------|
A|---------------------------|
E|---------2/9---------------|  play 3x
B|-2---2---------2---2---2---|

D|---------------------------|
A|---------------------------|
E|---------2/9---------------|
B|-2---2---------0---0---0---|

D|---------------------------|
A|---------------------------|
E|---------2/9---------------|  play 3x
B|-2---2---------2---2---2---|

D|---------------------------|
A|---------------------------|
E|---------2/9---------------|
B|-2---2---------0---0---0---|



[Final Chorus]
Lyrics resume, no bass for first 4 measures


D|----------------------|----------------------|-----------------------|
A|----------------------|----------------------|-----------------------|
E|----------------------|----------------------|-----------------------|
B|-7----7\---0----0-0---|-2----2----2----2-2---|-5----5----7--7--0-----|

D|-------------------|--------------------|-------------------|--------------------|
A|-------------------|--------------------|-------------------|--------------------|
E|-------------------|------5---4---------|-------------------|------5---4---------|
B|-2--2-----2--2-----|-2--2---------5--5--|-2--2------2--2----|-2--2---------5--7--|

D|-------------------|---------------------|-------------------------|
A|-------------------|---------------------|-------------------------|
E|-------------------|------12---11--------|-------------------------|
B|-2--2-----2--2-----|-2--2---------12--12-|-10-10-10-10-10-10-10-10-|

D|-----------------------|------------------------|
A|-----------------------|------------------------|
E|-----------------------|------------------------|
B|-0--0--0--0--0--0--0---|-2---2---2---2---2------|


Key:
| /  slide up
| \  slide down
| h  hammer-on
| p  pull-off

            
            
Suggest correction
Creating personal tab
Creating personal tab
You can edit any tab online and save it as your Personal.

You can edit, replace or remove any tab part or add personal notes – all changes will be seen only by you.

Personal tabs can be accessed anytime from any device, even offline.
Learn more »
Give kudos to tab author, rate the tab!
1 2 3 4 5
comments
print report bad tab
guest
You may want to rate the tab now too:
select rating
Wanna post a correction for this tab? Suggest correction