Oops, an error
Loading. Please wait.

You Wont Be Missed Tab

version 2
version 2

Whole song

Interactive

52 views 3 this week
no commentswrite comment
1 2 3 4 5
3 more votes to show rating
add to favorites
launch autoscroll
font size
0
reset
how to read this tab
guitar tuner
Autoscroll
slow
fast
+/-
esc
set tempo
stop
Help us to improve Ultimate-Guitar.com Take our survey!
×
Author
Difficulty
Tuning
intermediate
A# F A# D# G C
[Intro]

C |------------------------------------------------------------------------------|
G |------------------------------------------------------------------------------|
D#|------------------------------------------------------------------------------|
A#|------------------------------------------------------------------------------|
F |-4------3---4------3-------1-----1h3-4------3---4------3-------1-----1-----1h3|
A#|----3-1---1----3-1---1-0-0---0-0--------3-1---1----3-1---1-0-0---0-0---0-0----|

C |------------------------------------------------------------------------------|
G |------------------------------------------------------------------------------|
D#|------------------------------------------------------------------------------|
A#|------------------------------------------------------------------------------|
F |-4------3---4------3-------1-----1h3-4------3---4------3-------1-----1h3------|
A#|----3-1---1----3-1---1-0-0---0-0--------3-1---1----3-1---1-0-0---0-0----------|

[Verse 1]

C |---0--------------------------------|   |-------------------------------------|
G |---0--------------------------------|   |-------------------------------------|
D#|---0--------------------------------|   |-------------------------------------|
A#|------------------------------------|x4 |-------------------------------------|
F |-0---0---0-0-0-0---0--0--0--0--0-0--|   |--0---0------------------------------|
A#|-1---1---1-1-1-1---1--1--1--1--1-1--|   |--0---0------------------------------|
    pm  pm  pm pm pm  pm pm pm pm pmpm

[Pre Chorus]

C |------------------------------------------------------------------------------|
G |------------------------------------------------------------------------------|
D#|------------------------------------------------------------------------------|
A#|------------------------------------------------------------------------------|
F |------------------------------------------------------------------------------|
A#|-0-0-13-12-0-0-0-0-0-0-13-12-10-12-0-0-0-0-10-12-0-0-0-0-13-12-0-0-10--12-----|

C |------------------------------------------------------------------------------|
G |------------------------------------------------------------------------------|
D#|------------------------------------------------------------------------------|
A#|------------------------------------------------------------------------------|
F |------------------------------------------------------------------------------|
A#|-0-0-13-12-0-0-0-0-0-0-13-12-10-12-0-0-0-0-0-0-0-3-3-0-10-12-0-0-8---10-------|

C |------------------------------------------------------------------------------|
G |------------------------------------------------------------------------------|
D#|------------------------------------------------------------------------------|
A#|------------------------------------------------------------------------------|
F |------------------------------------------------------------------------------|
A#|-0-0-13-12-0-0-0-0-0-0-13-12-10-12-0-0-0-0-10-12-0-0-0-0-13-12-0-0-10--12-----|

C |------------------------------------------------------------------------------|
G |------------------------------------------------------------------------------|
D#|------------------------------------------------------------------------------|
A#|------------------------------------------------------------------------------|
F |------------------------------------------------------------------------------|
A#|-0-0-13-12-0-0-0-0-0-0-13-12-10-12-0-0-0-0-0-0-0-3-3-0-10h12-8h10-------------|

[Chorus]

C |------8----8---------8----8----10p8-------|   |-10------------13-13-12--------|
G |------------------------------------10p8--|   |----10------------------13-----|
D#|-9h10---10---10-9h10---10---10------------|x3 |-------10b-9-9-----------------|
A#|------------------------------------------|   |-------------------------------| Chorus x2
F |------------------------------------------|   |-------------------------------|
A#|------------------------------------------|   |-------------------------------|

[Pre Verse]

C |------------------------------------------------------------------------------|
G |------------------------------------------------------------------------------|
D#|------------------------------------------------------------------------------|
A#|------------------------------------------------------------------------------|
F |-4-----3----------------------------------------------------------------------|
A#|---3-1---1-0-1-3--------------------------------------------------------------|

[Verse 2]

C |---0--------------------------------------------------------------------------|
G |---0--------------------------------------------------------------------------|
D#|---0--------------------------------------------------------------------------|
A#|------------------------------------------------------------------------------|x2
F |-0---0---0-0-0-0---0--0--0--0--0-0--------------------------------------------|
A#|-1---1---1-1-1-1---1--1--1--1--1-1--------------------------------------------|
    pm  pm  pm pm pm  pm pm pm pm pmpm

C |---0--------------------------------------------------------------------------|
G |---0--------------------------------------------------------------------------|
D#|---0--------------------------------------------------------------------------|
A#|------------------------------------------------------------------------------|
F |-0---0-------------0--0--0--0--0-0--------------------------------------------|
A#|-1---1-------------1--1--1--1--1-1--------------------------------------------|
    pm  pm            pm pm pm pm pmpm

C |---0--------------------------------------------------------------------------|
G |---0--------------------------------------------------------------------------|
D#|---0--------------------------------------------------------------------------|
A#|------------------------------------------------------------------------------|
F |-0---0-------------0--0--0--3h5-----1h3---------------------------------------|
A#|-1---1-------------1--1--1------0-0-----0-0-----------------------------------|
    pm  pm            pm pm pm     pmpm

[Pre Chorus]

C |------------------------------------------------------------------------------|
G |------------------------------------------------------------------------------|
D#|------------------------------------------------------------------------------|
A#|------------------------------------------------------------------------------|
F |------------------------------------------------------------------------------|
A#|-0-0-13-12-0-0-0-0-0-0-13-12-10-12-0-0-0-0-10-12-0-0-0-0-13-12-0-0-10--12-----|

C |------------------------------------------------------------------------------|
G |------------------------------------------------------------------------------|
D#|------------------------------------------------------------------------------|
A#|------------------------------------------------------------------------------|
F |------------------------------------------------------------------------------|
A#|-0-0-13-12-0-0-0-0-0-0-13-12-10-12-0-0-0-0-0-0-0-3-3-0-10-12-0-0-8---10-------|

C |------------------------------------------------------------------------------|
G |------------------------------------------------------------------------------|
D#|------------------------------------------------------------------------------|
A#|------------------------------------------------------------------------------|
F |------------------------------------------------------------------------------|
A#|-0-0-13-12-0-0-0-0-0-0-13-12-10-12-0-0-0-0-10-12-0-0-0-0-13-12-0-0-10--12-----|

C |------------------------------------------------------------------------------|
G |------------------------------------------------------------------------------|
D#|------------------------------------------------------------------------------|
A#|------------------------------------------------------------------------------|
F |------------------------------------------------------------------------------|
A#|-0-0-13-12-0-0-0-0-0-0-13-12-10-12-0-0-0-0-0-0-0-3-3-0-10h12-8h10-------------|

[Chorus]

C |------8----8---------8----8----10p8-------|   |-10------------13-13-12--------|
G |------------------------------------10p8--|   |----10------------------13-----|
D#|-9h10---10---10-9h10---10---10------------|x3 |-------10b-9-9-----------------|
A#|------------------------------------------|   |-------------------------------| Chorus x2
F |------------------------------------------|   |-------------------------------|
A#|------------------------------------------|   |-------------------------------|

[Outro]

C |------------------------------10----10----------10----10/13-12----10----------|
G |-13----------11-10-13------------10----10----------10----------13----13-10----|
D#|----10-9-10-----------10-9-10-------------10b-9-------------------------------|
A#|------------------------------------------------------------------------------|
F |------------------------------------------------------------------------------|
A#|------------------------------------------------------------------------------|

C |------------------------------10----10----------10----10/13-12----10----------|
G |-13----------11-10-13------------10----10----------10----------13----13-10----|
D#|----10-9-10-----------10-9-10-------------10b-9-------------------------------|
A#|------------------------------------------------------------------------------|
F |------------------------------------------------------------------------------|
A#|------------------------------------------------------------------------------|


************************************

| h   Hammer-on
| p   Pull-off
| b   Bend
| /   Slide up
| PM  Palm mute

************************************
Suggest correction
Give kudos to tab author, rate the tab!
1 2 3 4 5
comments
print report bad tab
guest
You may want to rate the tab now too:
select rating
Wanna post a correction for this tab? Suggest correction