Oops, an error
Loading. Please wait.

2022 Chords

version 2
version 2

Whole song

  • This tab incorporates both tab and chords as the song contains both.
160 views 15 this week
no commentswrite comment
1 2 3 4 5
3 more votes to show rating
add to favorites
launch autoscroll
font size
0
reset
transpose
0
reset
display chords
guitar tuner
Autoscroll
slow
fast
+/-
esc
set tempo
stop
Help us to improve Ultimate-Guitar.com Take our survey!
×
Author
Difficulty
Capo
novice
2nd fret
About this tab version
This tab incorporates both tab and chords as the song contains both. Was this info helpful? Yes No
Capo on second fret.

Link to original song: https://www.youtube.com/watch?v=5t-kuvkM5UU

[Intro]

 |D                |G                |A                                |D
E|-------2-------2-|-----------------|---------------------------------|-------2-------2-|
B|---3-------3-----|-------0-------0-|-------2-------2-------2-------2-|---3-------3-----|
G|-----------------|---0-------0-----|---2--------2------2--------2----|-----------------|
D|-0---0---0---0---|-----------------|---------------------------------|-0---0---0---0---|
A|-----------------|-----------------|-0---0---0---0---0---0---0---0---|-----------------|
E|-----------------|-3---3---3---3---|---------------------------------|-----------------| Apply to verses


[Verse]
         D              G
Years go by and here we lie
               A                   D
You're like my star, we've come so far
             D               G
Will you lay here with me my dear
         A             D
When the sky is not so clear


[Pre-chorus] ((Actual strumming now))
    D                          Bm
You hold me in your arms and I hold you back            
             A
And when the dark sky fades to black 
   D                      Bm     A
My tired eyes are blinded by the fairy lights


[Chorus]
    G                          D 
How far would I have gotten without you here
    Bm                        A
But time's been forgotten for years and years
   G                    C                   A                    
My life is beginning to piece together with you
  G                D         
I could've made it on my own
    Bm               A  
But you were like my stepping stones
    G               C    A 
I'm looking forward to 2022

 |D
E|-2---0---|
B|---3---1-|
G|---------|
D|---------|
A|---------|
E|---------|

     D ((reapply intro finger picking pattern))
With you


[Verse}
    D              G
One day we will be brave
              A                 D
I'll tell the world I feel this way
              D               G  
But I look up high and wonder why
             A                 D
They need to know how our life goes 


[Pre-chorus] ((Actual strumming now))
    D                          Bm
You hold me in your arms and I hold you back            
             A
And when the dark sky fades to black 
   D                      Bm     A
My tired eyes are blinded by the fairy lights


[Chorus]
     G                          D  
How far would I have gotten without you here
    Bm                        A
But time's been forgotten for years and years
   G                    C                   A                    
My life is beginning to piece together with you
  G                D         
I could've made it on my own
    Bm               A  
But you were like my stepping stones 
    G               C    A 
I'm looking forward to 2022


[Bridge]
|G       |Bm   A  |F C   G  |


[Chorus]
    G                           D
How far would I have gotten without you here
    Bm                        A
But time's been forgotten for years and years
   G                    C                   A                    
My life is beginning to piece together with you
  G                D         
I could've made it on my own
    Bm              A  
But you were like my stepping stones 
    G               C    A 
I'm looking forward to 2022
    G                           D 
How far would I have gotten without you here
    Bm                        A
But time's been forgotten for years and years
   G                    C                   A                    
My life is beginning to piece together with you
  G                D         
I could've made it on my own
    Bm               A  
But you were like my stepping stones
    G               C    A 
I'm looking forward to 2022

 |D
E|-2---0----|
B|---3----1-|
G|----------|
D|----------|
A|----------|
E|----------|

     D ((reapply intro finger picking pattern))
With you


[Outro] ((sugestions are totally welcome, I'm iffy on this one!))

 |G        |D        |Bm       |A        |G        |C        |A
E|---------|---------|---------|---------|---------|---------|-----------|
B|---------|-----3---|---------|---------|---------|---------|-----------|
G|-----0---|---2-----|-----4---|-----2---|-----0---|-----0---|------2----|
D|---0-----|-0-------|---4-----|---2-----|---0-----|---2-----|----2------|
A|-2-------|---------|-2-------|-0-------|-2-------|-3-------|--0--------|
E|---------|---------|---------|---------|---------|---------|-----------| apply to outro

  G                D
I could've made it on my own
Bm               A    
You were like my stepping stones
    G               C    A
I'm looking forward to 2022


 |D
E|-2---0---|
B|---3---1-|
G|---------|
D|---------|
A|---------|
E|---------|

     G
With you
Suggest correction
Give kudos to tab author, rate the tab!
1 2 3 4 5
comments
print report bad tab
guest
You may want to rate the tab now too:
select rating
Wanna post a correction for this tab? Suggest correction