Oops, an error
Loading. Please wait.

The Balcony tab

328 views 6 this week
no commentswrite comment
1 2 3 4 5
2 more votes to show rating
add to favorites
×
Save as Personal and add changes to this tab that will be seen only by you. Learn more ›
×
You can save this tab as Personal to edit and correct it or add notes. All changes will be seen only by you. Learn more »
launch autoscroll
font size
0
reset
how to read this tab
guitar tuner
edit
Autoscroll
slow
fast
+/-
esc
set tempo
stop
Author
Difficulty
-------------------------------------------------------------------------------
        The Balcony - Eden (LikeTotallyEden) and Katherine (PhanCantEven)
-------------------------------------------------------------------------------

original song: https://www.youtube.com/watch?v=PuJ_ealUExA

I tried. This is my first time tabbing anything and i'm tone deaf so ye. It's a pretty easy song 
anyway have fun. 100% sure the bridgey thing is wrong so you'll probably want to just figure that bit out.
The chords that are played on the ukelele are em, g, am, em, for pretty much the whole
song if you want to play that too.

Tuning: Standard

Intro: Em, G, Am, Em (x2)
e|---------------------------------------------------------------------------|
B|---------------------------------------------------------------------------|
G|---0-0-----0-0-----0-----------0-0-----0-0---------------------------------|
D|-4-----0-4-----0-4---4-2-2-0-4-----0-4-------------------------------------|
A|---------------------------------------------------------------------------|
E|---------------------------------------------------------------------------|
Moments are like a star they explode within an instant, Taking with them the memories

e|---------------------------------------------------------------------------|
B|---------------------------------------------------------------------------|
G|-0-2-4-2-0-0-----0-0-----0-0---0---------0-0-0-2-2-0-0---0-----------------|
D|-------------4-4-----0-4-----4---4-2-2-0---------------4---4---------------|
A|---------------------------------------------------------------------------|
E|---------------------------------------------------------------------------|
I had of you and me, You were like a shooting star, gone within an instant. Did I fall for a shooting star?

CHORUS:
e|---------------------------------------------------------------------------|
B|---------------------------------------------------------------------------|
G|-4-2-0-2-0---------0-----0---0---0---0-2-2 ---------------------------------|
D|-----------2-0-0-4---4-2---4---2---4---------------------------------------|
A|---------------------------------------------------------------------------|
E|---------------------------------------------------------------------------|
Turn the page, maybe we'll find. A brand new ending, one where you don't burn out all too soon
e|---------------------------------------------------------------------------|
B|---------------------------------------------------------3-0---------------|
G|-4-2-0---0---0---0-4-2-2-0-0-2-4-2-2-0-2-------0-0---2-0-------------------|
D|-------4---2---4-------------------------2-0-4-----------------------------|
A|---------------------------------------------------------------------------|
E|---------------------------------------------------------------------------|
Oh am I a fool, who sits alone talking to the moon, when I could be on my balcony, Talking to you
e|---------------------------------------------------------------------------|
B|---------------------------------------------------------------------------|
G|------------0-0---0-----------0--------0-0-0--------0-2-4-2-0-0-------------|
D|----------------2---2-0---0-4---4-2-2--------2-0---------------------------|
A|------------------------2------------------------2-------------------------|
E|---------------------------------------------------------------------------|
Because when push comes to shove, as might as well just jump, How can you care, if you're not even there
END CHORUS
SOME OF THE STRUMMING STUFF
e|---------------------------------------------------------------------------|
B|---------------------------------------------------------------------------|
G|---0-0-0-0------------------------------------0----------------------------|
D|-4---------2-0------0-0-0-4-5---4-4-4-4-4-4-4---4-2-2----------------------|
A|---------------------------------------------------------------------------|
E|---------------------------------------------------------------------------|
Didn't want to cause a fire. Didn't start a flame. But I guess I only have myself to blame
e|---------------------------------------------------------------------------|
B|---------------------------------------------------------------------------|
G|---0---0---0-0---0---0--0-0-0-0-0-0-0-2-0-0---0----------------------------|
D|-0---4---4-----4---4------------------------4---4--------------------------|
A|---------------------------------------------------------------------------|
E|---------------------------------------------------------------------------|
The darkness of my heart, stopped the burning spark, or maybe it was the lies, behind your eyes
e|---------------------------------------------------------------------------|
B|---------------------------------------------------------------------------|
G|-0---0---0---0-2---0-2-2-2-2-4-4-------------------------------------------|
D|---4---2---2---------------------------------------------------------------|
A|---------------------------------------------------------------------------|
E|---------------------------------------------------------------------------|
Oh you know how to save me, so why couldn't you save yourself 

CHORUS AGAIN EXCEPT THIS BIT IS DIFFERENT 
e|---------------------------------------------------------------------------|
B|---------------------------------------------------------------------------|
G|-0-0-----------0-----------------------------------------------------------|
D|-----2-0---0-4---4-2-2-----------------------------------------------------|
A|---------2-----------------------------------------------------------------|
E|---------------------------------------------------------------------------|
How can you care, if you're not even there?

END SONG 

            
            
Suggest correction
Creating personal tab
Creating personal tab
You can edit any tab online and save it as your Personal.

You can edit, replace or remove any tab part or add personal notes – all changes will be seen only by you.

Personal tabs can be accessed anytime from any device, even offline.
Learn more »
Give kudos to tab author, rate the tab!
1 2 3 4 5
comments
print report bad tab
guest
You may want to rate the tab now too:
select rating
Wanna post a correction for this tab? Suggest correction