Oops, an error
Loading. Please wait.

Colours Of The Summer Bass Tab

10 views 1 this week
no commentswrite comment
1 2 3 4 5
2 more votes to show rating
add to favorites
launch autoscroll
font size
0
reset
guitar tuner
Autoscroll
slow
fast
+/-
esc
set tempo
stop
Help us to improve Ultimate-Guitar.com Take our survey!
×
Author
Tuning
E A D G B E
--------------------------------------------------------------------------
                            Artist - Like Wendy
                          **********************
                        Song - Colours Of The Summer
                       ******************************
                          Album - Rainchild (2013)
                         **************************
                            Tabbed By - Ayreon77
                           **********************
--------------------------------------------------------------------------
Tuning = Standard             



INTRO
******
G|-------------|-------------|-------------|---------------|
D|-------------|-------------|-------------|------s--7-9-7-|
A|-7~~~-7--7-7-|-5~~~-5--5-5-|-------------|-----5\7-------|
E|-------------|-------------|-7~~~-7--7-7-|-5~~~----------|


G|-------------|-------------|----------------|--------------|
D|-------------|-------------|-------s--9---9-|-------s--7-9-|
A|-7~~~-7--7-7-|-5~~~-5--5-5-|------7\9---9---|------5\7-----|
E|-------------|-------------|-7~~~-----------|-5~~~---------|



-------------------
00:29
VERSE 1
********
   All the colours of the summer, A breeze is in the air
G|------------------------------------------------------|-----7---|
D|------------------------------------------------------|---7---7-|
A|-7--------------------------------5-------------------|-5-------|
E|------------------------------------------------------|---------|

   Melodies of long forgotten music in my ears
G|---------------------------------------------|-----------|
D|---------------------------------------------|--s--7-9-7-|
A|---------------------------------------------|-5\7-------|
E|-7--------------------------7--5-------------|-----------|

  I am standing by an open window   Memories are clear  
G|------------------9-------------|-----------------------7---|
D|----------------9---9-----------|---------------------7---7-|
A|------7-------7-----------------|-5-----------------5-------|
E|--------------------------------|---------------------------|

   A fragrance calls me from the outside   I am going there
G|---------------------------------------|------------------s------|
D|-----------------------------s----9----|-------------s---7\9-7-9-|
A|----------------------------7\9------9-|------------5\7----------|
E|-7----------------------7--------------|-5----5------------------|



-------------------
00:58
BREAK
******
G|-------------|-------------|-------------|---------------|
D|-------------|-------------|-------------|------s--7-9-7-|
A|-7~~~-7--7-7-|-5~~~-5--5-5-|-------------|-----5\7-------|
E|-------------|-------------|-7~~~-7--7-7-|-5~~~----------|


G|-------------|-------------|----------------|-----------------|
D|-------------|-------------|-------s--9---9-|--------s--7-9-7-|
A|-7~~~-7--7-7-|-5~~~-5--5-5-|------7\9---9---|-------5\7-------|
E|-------------|-------------|-7~~~-----------|-5-5-5-----------|



-------------------
01:26
VERSE 2
********
   Here are all the joys of childhood   Where I knew no fear
G|------------------------------------|---------------------|-----7--s-|
D|------------------------------------|---------------------|---7---7\-|
A|-7----------------------------------|-5-------------------|-5--------|
E|------------------------------------|---------------------|----------|

   Here is all the light that kept me going through the years
G|------------------------------------------------------------|-----------|
D|------------------------------------------------------------|--s--7-9-7-|
A|------------------------------------------------------------|-5\7-------|
E|-7-------------------------------7--5-----------------------|-----------|

   We had everything, no thought was captive   All those summer nights and beautiful
G|---------------------------9---------------|---------------------------------7---|
D|-------------------------9---9-------------|-------------------------------7---7-|
A|--------7--------------7-------------------|-5---------------------------5-------|
E|-------------------------------------------|-------------------------------------|

       the moon, your face, that picture      Now I go alone
G|------------------------------------------|------------------s------|
D|-----------------------------s----9-----9-|-------------s---7\9-7-9-|
A|----------------------------7\9------9----|------------5\7----------|
E|-7----------------------7-----------------|-5----5------------------|



-------------------
01:56
BREAK
******
G|-------------|-------------|-------------|---------------|
D|-------------|-------------|-------------|------s--7-9-7-|
A|-7~~~-7--7-7-|-5~~~-5--5-5-|-------------|-----5\7-------|
E|-------------|-------------|-7~~~-7--7-7-|-5~~~----------|


G|-------------|-------------|----------------|------------s------|---|
D|-------------|-------------|-------s--9---9-|--------s--7\9-7-9-|---|
A|-7~~~-7--7-7-|-5~~~-5--5-5-|------7\9---9---|-------5\7---------|-7-|
E|-------------|-------------|-7~~~-----------|-5-5-5-------------|---|



-------------------
02:31
PICKING SECTION
****************
G|---------s----|--------------------|--s--9-----s-|
D|--------7\9-7-|--------------------|-7\9---9--9\-|
A|-7~~~-7-------|-7~~~-7--s--5-7-5---|-------------|
E|--------------|--------5\7-------5-|-------------|

                 s 
G|-----------s--9\11---|-------s--------------|--s--9---s-|------------------|
D|-------s--7\9------9-|------7\9-9-----------|-7\9---9-\-|---------------s--|
A|-7~~~-5\7------------|-7~~~--------s--5-7---|-----------|-10--9--7--5--5\7-|
E|---------------------|------------5\7-----5-|-----------|------------------|



-------------------
03:04
CHORUS
*******
G|--------------|-----------------------|-----------------------|-----------------------|
D|--------------|-----------------------|-----------------------|-----------------------|
A|-7-------5----|---7---7-------5---5---|---7---7-------5---5---|---7---7-------5---5---|
E|---8---8----5-|-5-------8---8-------5-|-5-------8---8-------5-|-5-------8---8-------5-|

03:36
G|----------------------|---------------------s----|----------------------|-------------|
D|----------------------|--------------------7\9-7-|----------------------|-------------|
A|-7-7-7-7-7------------|-5-5-5-5-5----------------|-7-7-7-7-7------------|-5-5-5-5-5---|
E|-----------8--8-8-8-8-|-----------5--5-5-5-------|-----------8--8-8-8-8-|-----------5-|



-------------------
03:56
SOLO
*****
G|--------------------|---------------------|
D|--------------------|---------------------|
A|---7-5------5-5-----|---7-5------5-5------|
E|-0-----8-8------8-8-|-0-----8-8-------8-8-|

04:06
G|-----------------------------------h----|------------------------------------h----|
D|----5---5----------------7-5------5-7-7-|-----9-7-5----------------7-5------5-7-7-|
A|-7----7---------h----5-5-----7----------|-7-7-------------h----5-5-----7----------|
E|----------8-8--7-8-8-----------5-5------|-----------8-8--7-8-8-----------5-5------|X4



-------------------
04:52
VERSE 3
********
   All the   endless   shapes that this illusion carries on
G|------------------------------------|---------------------|-----7--s-|
D|------------------------------------|---------------------|---7---7\-|
A|-7----------------------------------|-5-------------------|-5--------|
E|------------------------------------|---------------------|----------|

   Motionless I watch the sunlight fade into the dawn
G|------------------------------------------------------|-----------|
D|------------------------------------------------------|--s--7-9-7-|
A|------------------------------------------------------|-5\7-------|
E|-7-------------------------7--5-----------------------|-----------|

   We had everything except the future visions in the dark
G|------------------------------9----|---------------------|-----7---|
D|----------------------------9---9--|---------------------|---7---7-|
A|--------7-----------------7--------|-5-------------------|-5-------|
E|-----------------------------------|---------------------|---------|

   Ghosts with hollow hearts this heritage is what we own
G|------------------------------------------|---------------s------|
D|-----------------------------s----9-----9-|----------s---7\9-7-9-|
A|----------------------------7\9------9----|---------5\7----------|
E|-7----------------------7-----------------|-5--5--5--------------|



-------------------
OUTRO
******
G|-------------|-------------|-------------|---------------|
D|-------------|-------------|-------------|------s--7-9-7-|
A|-7~~~-7--7-7-|-5~~~-5--5-5-|-------------|-----5\7-------|
E|-------------|-------------|-7~~~-7--7-7-|-5~~~----------|


G|-------------|-------------|----------------|------------s------|---|
D|-------------|-------------|-------s--9---9-|--------s--7\9-7-9-|---|
A|-7~~~-7--7-7-|-5~~~-5--5-5-|------7\9---9---|-------5\7---------|-7-|
E|-------------|-------------|-7~~~-----------|-5-5-5-------------|---|




ENJOY.........
Suggest correction
Give kudos to tab author, rate the tab!
1 2 3 4 5
comments
print report bad tab
guest
You may want to rate the tab now too:
select rating
Wanna post a correction for this tab? Suggest correction