Oops, an error
Loading. Please wait.

Checkin It Out Bass Tab

version 1
version 1

Whole song

356 views 1 this week
4 commentsread comments
1 2 3 4 5
1 last vote to show rating
add to favorites
launch autoscroll
font size
0
reset
guitar tuner
Autoscroll
slow
fast
+/-
esc
set tempo
stop
Help us to improve Ultimate-Guitar.com Take our survey!
×
Difficulty
novice
Ok Im back again and this lil' chris shit is annoying me now i have 2 tab the bass bcoz 
else has cmon wots up wit u. Alright there is only one part of this song on bass that i 
know and dat is the guitar solo but u know wot screw it here is the tab:

INTRO/VERSE/CHORUS

G|-------------------------------------------------------------------------|
D|-------------------------------------------------------------------------|
A|---4-4--4-4-4-4-4-4-4-6-6-6-4-4-x2  --1-1-1-1-1-1-1-1-3-3-3-4-4----------|
E|-------------------------------------------------------------------------|

Believe it or not that is the whole song its annoying while tabbing this song ive bin 
2 sum41, offspring (rock), bowling 4 soup and good charlotte.
     c u l8ter biatch
Suggest correction
Give kudos to tab author, rate the tab!
1 2 3 4 5
comments
print report bad tab
4 comments total. Showing first comments.
0 reply
thevibesjosh 31 Dec 16, 2006 01:05 PM

try

Phase 1

G--------------------
D---------------3-3-3
A-4-4-4-4-4-4-4------
E--------------------

Phase 2

G---------------------
D---------------------
A-1-1-1-1-1-1-1-3-3-3-
E---------------------

0 reply
neversaydie2 10 Feb 20, 2007 01:55 PM

You could also try not living anymore because that is absolutly ridiculous

0 reply
19371 1,056 Jul 12, 2007 01:20 PM

Thats a bit harsh. Wasn't who tabbed but that is harsh

guest
You may want to rate the tab now too:
select rating
Wanna post a correction for this tab? Suggest correction