Oops, an error
Loading. Please wait.

Checking It Out Tab

746 views 1 this week
no commentswrite comment
1 2 3 4 5
please rate
add to favorites
launch autoscroll
font size
0
reset
how to read this tab
guitar tuner
Autoscroll
slow
fast
+/-
esc
set tempo
stop
Help us to improve Ultimate-Guitar.com Take our survey!
×
Difficulty
novice
this is the tab blar blar blar and if u want more good tabs heres a name of a  easy tab 
a nuwbie its calld there she goes by the la's.

Then this part(though i know i cant be sure of her..)
E|------------------------------------------------------|
B|------------------------------------------------------|
G|--6-6-6-6--10-10-10---------------------------6-6-----|
D|--6-6-6-6--10-10-10--8-8---8-8-8-8--10-10-10--6-6-----|
A|--4-4-4-4--8--8--8---8-8---8-8-8-8--10-10-10--4-4-----|
E|---------------------6-6---6-6-6-6--8--8--8-----------|

Then the main riff again:

E|-----------------------------------------------|
B|-----------------------------------------------|
G|-6-6---6-6-6-6--10-10-10--6-6------------------|     [x5]
D|-6-6---6-6-6-6--10-10-10--6-6------------------|
A|-4-4---4-4-4-4--8---8--8--4-4------------------|
E|-----------------------------------------------|

When he sings I'm in a sweat about it, I can't forget about it,
there's a light change:

E|----------------------------------------|
B|----------------------------------------|
G|-6-6-6-6--10-10-10----------------------|
D|-6-6-6-6--10-10-10--4--4-8--8--11-------| (Woah-oh-oh-oh-oah)
A|-4-4-4-4--8--8--8---4--4-8--8--11-------|
E|--------------------2--2-6--6--9--------|

E|--------------------------|
B|--------------------------|
G|--------------------------|
D|--4--4-8-------6-6---6-6--|
A|--4--4-8------------------|
E|--2--2-6---4-4-----4------|

Chorus, same chords but strummed more often: eg.
E|----------------------------------------------------------|
B|----------------------------------------------------------|
G|-6-6-6-6-6-6-6-6-6-6-6-6-10-10-10-6-6-6-6-6-6-6-6-6-6-6-6-|
D|-6-6-6-6-6-6-6-6-6-6-6-6-10-10-10-6-6-6-6-6-6-6-6-6-6-6-6-|
A|-4-4-4-4-4-4-4-4-4-4-4-4-8--8--8--4-4-4-4-4-4-4-4-4-4-4-4-|
E|----------------------------------------------------------|

The official website is www.lilchris.co.uk
Suggest correction
What's this?
You can suggest a correction to this tab. Community and Mods will review your correction and vote to approve or reject it.
comments
We did not receive enough feedback on this tab! Please rate:
print report bad tab
1 2 3 4 5
guest
You may want to rate the tab now too:
select rating
Please do not post tabs as comments. Select "correction" instead!