Oops, an error
Loading. Please wait.

Is There Anybody Out There Bass Tab

635 views 3 this week
no commentswrite comment
1 2 3 4 5
2 more votes to show rating
add to favorites
launch autoscroll
font size
0
reset
guitar tuner
Autoscroll
slow
fast
+/-
esc
set tempo
stop
Help us to improve Ultimate-Guitar.com Take our survey!
×
Author
Difficulty
G|-----------------------------------------------------------|  
D|-----------------------------------------------------------|
A|----------111--------33--------111-------------------------|  [x3]
E|-----333-------111---------333-----111--3------------------|

[When it comes to the verse you only play the second bit.]

Wanna learn to fly, wanna get so high 
Its kicking off!

G|---------------------------------|
D|---------------------------------|
A|-----111-------------------------|
E|-333-----111--3------------------| 

Somewhere we can get more, feel more, 
We're lifting off!

G|---------------------------------|
D|---------------------------------|
A|-----111-------------------------|
E|-333-----111--3------------------| 

Gonna take my life, 
My life to new levels, 
Gonna shake it all over till my heart rate trebles!

G|---------------------------------|
D|---------------------7777--99----|
A|-99999999999\77-777--------------|
E|---------------------------------|

We're getting out of this place,
Now get out of my face,
We're kicking off!

G|---------------------------------|
D|---------------------------------|
A|-----111-------------------------|
E|-333-----111--3------------------| 

Bought a ticket out of this hole,
Play my rock n roll,
We're kicking off!

G|---------------------------------|
D|---------------------------------|
A|-----111-------------------------|
E|-333-----111--3------------------| 

Gonna take my life, 
My life to new levels, 
Gonna shake it all over till my heart rate trebles!

G|---------------------------------|
D|---------------------7777--99----|
A|-99999999999\77-777--------------|
E|---------------------------------|

Come oooooooooonnn!

G|-----------------------------|  
D|-----------------------------|   
A|------111-------33-----------|    
E|-333-------111---------------|     
                                      \
Is there anybody out there?            \
                                        \   
G|---------------------------------|     \                                  
D|---------------------------------|      \                                 
A|-----111-------------------------|       \
E|-333-----111--3------------------|        \                              
                                             \
Anybody there?                                \          
                                               \  [x2]
G|-----------------------------|               /                            
D|-----------------------------|              /                         
A|------111-------33-----------|             /                          
E|-333-------111---------------|            /                           
                                           /
Is there anybody out there?               /
                                         /
G|---------------------------------|    /
D|---------------------------------|  
A|-----111-------------------------| 
E|-333-----111--3------------------|

Alright so shake it off, 
Shake it off, 
We're kicking off! 

G|---------------------------------|
D|---------------------------------|
A|-----111-------------------------|
E|-333-----111--3------------------| 

Somewhere we can get more, feel more,
We're lifting off!

G|---------------------------------|
D|---------------------------------|
A|-----111-------------------------|
E|-333-----111--3------------------| 

Gonna take my life, 
My life to new levels, 
Gonna shake it all over till my heart rate trebles!

G|---------------------------------|
D|---------------------7777--99----|
A|-99999999999\77-777--------------|
E|---------------------------------|

Come oooooooooon!

G|-----------------------------|  
D|-----------------------------|
A|------111-------33-----------|
E|-333-------111---------------|

Is there anybody out there?

G|---------------------------------|
D|---------------------------------|
A|-----111-------------------------|
E|-333-----111--3------------------| 

Anybody there?

G|-----------------------------|  
D|-----------------------------|
A|------111-------33-----------|
E|-333-------111---------------|

Is there anybody out there?

G|---------------------------------|
D|---------------------------------|
A|-----111-------------------------|
E|-333-----111--3------------------| 

Yeeeeeaaaahhhhhh!

G|-----------------------------|  
D|-----------------------------|
A|------111-------33-----------|
E|-333-------111---------------|

Is there anybody out there?

G|---------------------------------|
D|---------------------------------|
A|-----111-------------------------|
E|-333-----111--3------------------| 

Anybody there?

G|-----------------------------|  
D|-----------------------------|
A|------111-------33-----------|
E|-333-------111---------------|

Is there anybody out there?

G|---------------------------------|
D|---------------------------------|
A|-----111-------------------------|
E|-333-----111--3------------------| 

Gonna take my life, 
My life to new levels, 
Gonna shake it all over till my heart rate trebles!

G|---------------------------------|
D|---------------------7777--99----|
A|-99999999999\77-777--------------|
E|---------------------------------|

Come On! Come On!

G|-----------------------------------------------------------|  
D|-----------------------------------------------------------|
A|----------111--------33--------111-------------------------|  x3
E|-----333-------111---------333-----111--3------------------|

Come On! (Yeeeeeaaaahhhhhh!)

G|-----------------------------|  
D|-----------------------------|
A|------111-------33-----------|
E|-333-------111---------------|

Yeeeeaaaaahhhhhh!

G|---------------------------------|
D|---------------------------------|
A|-----111-------------------------|
E|-333-----111--3------------------| 

Wahoo Wahoo!!

G|-----------------------------|  
D|-----------------------------|
A|------111-------33-----------|
E|-333-------111---------------|

Yeeeaaaahhhhh!

G|---------------------------------|
D|---------------------------------|
A|-----111-------------------------|
E|-333-----111--3------------------| 

Is there anybody out there? (Yeeeaaaahhhhh!)

G|-----------------------------|  
D|-----------------------------|
A|------111-------33-----------|
E|-333-------111---------------|

Yeah!
Yeeeaaaahhhhh!
Is there anybody out there?

G|---------------------------------|
D|---------------------------------|
A|-----111-------------------------|
E|-333-----111--3------------------| 

Anyone who cares?

G|---------------------------------|
D|---------------------------------|
A|-----111-------------------------|
E|-333-----111--3------------------| 

Yeeeeeeaaaaaaaaahhhhhhh! Right!


PM me if there's any problems.

Suggest correction
Give kudos to tab author, rate the tab!
1 2 3 4 5
comments
print report bad tab
guest
You may want to rate the tab now too:
select rating
Wanna post a correction for this tab? Suggest correction