Oops, an error
Loading. Please wait.

Sunshine Tab

version 1
version 1

Whole song

1,627 views 1 this week
1 commentread comment
1 2 3 4 5
please rate
add to favorites
launch autoscroll
font size
0
reset
how to read this tab
guitar tuner
Autoscroll
slow
fast
+/-
esc
set tempo
stop
Help us to improve Ultimate-Guitar.com Take our survey!
×
Author
                     Sunshine - Lil Flip
-------------------------------------------------------------------------------
Tabbed by:Ace496970
Email:Ace496970@yahoo.com

Site:http://www.mtv.com/bands/az/lil_flip/artist.jhtml
lyrics:http://www.onlylyrics.com/read.php?id=12431

Tuning:standard

e|5--7--5--5--7--5--5--7--5--3--5--7----|
B|5--7-----5--7-----5--7--5--3----------|
G|5--7-----5--7-----5--7--5--3----------|
D|--------------------------------------|
A|--------------------------------------|
E|--------------------------------------|

There ya go. Have fun, and e-mail me with corrections ok.
Suggest correction
Give kudos to tab author, rate the tab!
1 2 3 4 5
comments
print report bad tab
1 comment total.
0 reply
livia whyte 21 wrote on March 31 2013, 12:48 pm

Instead of it playing it on the 3rd fret of the strings, I think when you play it on the 2nd it sounds more like the track:

e|5--7--5--5--7--5--5--7--5--2--3-5--7--|
B|5--7-----5--7-----5--7--5--2--3-5--7--|
G|5--7-----5--7-----5--7--5--2--3-5--7--|
D|--------------------------------------|
A|--------------------------------------|
E|--------------------------------------|

guest
You may want to rate the tab now too:
select rating
Please do not post tabs as comments. Select "correction" instead!