Oops, an error
Loading. Please wait.

Lets Go solo tab

version 1
version 1

Solo

Whole song

Interactive

2,089 views 1 this week
4 commentsread comments
1 2 3 4 5
x 5
add to favorites
×
Save as Personal and add changes to this tab that will be seen only by you. Learn more ›
×
You can save this tab as Personal to edit and correct it or add notes. All changes will be seen only by you. Learn more »
launch autoscroll
font size
0
reset
how to read this tab
guitar tuner
edit
Autoscroll
slow
fast
+/-
esc
set tempo
stop
Author
this might not be exact but its close enough.. yea.. haha 


           play this 7 times
         e--------9---10---9---7-7------------------------------------|
         B----7-7---7----7---7-----10---10-9-7-6----------------------|
         G------------------------------------------------------------|
         D------------------------------------------------------------|
         A------------------------------------------------------------|
         E------------------------------------------------------------|

           then play this the 8th time [the only one difference tho]
         e--------9---10---9---7-7------------------------------------|
         B----7-7---7----7---7-----10---10-9-7-6-7--------------------|
         G------------------------------------------------------------|
         D------------------------------------------------------------|
         A------------------------------------------------------------|
         E------------------------------------------------------------|

            
            
Suggest correction
Creating personal tab
Creating personal tab
You can edit any tab online and save it as your Personal.

You can edit, replace or remove any tab part or add personal notes – all changes will be seen only by you.

Personal tabs can be accessed anytime from any device, even offline.
Learn more »
comments
print report bad tab
4 comments total. Showing first comments.
0 reply
tabsaregood14 10 Oct 28, 2005 06:35 PM

not even close to being right

0 reply
samrj66 10 Mar 24, 2007 03:46 AM

e--------9---10---9---7-7------------------------------------|
B----7-7---7----7---7-----10---10-9-7-5----------------------|
G------------------------------------------------------------|
D------------------------------------------------------------|
A------------------------------------------------------------|
E------------------------------------------------------------|

thats closer - if you were just trying to play the main riff in a different key.

0 reply
Kaiwen 36 Dec 30, 2007 06:43 AM

yea

going to five sounds better

but other than that the tab was pretty good

guest
You may want to rate the tab now too:
select rating
Wanna post a correction for this tab? Suggest correction