Oops, an error
Loading. Please wait.

Leather So Soft tab

version 4
version 4

Whole song

162 views 3 this week
no commentswrite comment
1 2 3 4 5
3 more votes to show rating
add to favorites
×
Save as Personal and add changes to this tab that will be seen only by you. Learn more ›
×
You can save this tab as Personal to edit and correct it or add notes. All changes will be seen only by you. Learn more »
launch autoscroll
font size
0
reset
how to read this tab
guitar tuner
edit
Autoscroll
slow
fast
+/-
esc
set tempo
stop
-------------------------------------------------------------------------------
                       Leather so soft – Lil Wayne ft. Birdman
-------------------------------------------------------------------------------
Tabbed by: Denohpakni   
E-mail:denohpakni@gmail.com


Tuning:Db,Ab,Db,Gb,Bb,eb                Tempo: 73

The rhythm guitar goes like this throughout the verse, 
it’s easy to figure the rhythm of the song once you listen to it
eb|---------------------------------------------|
Bb|---------------------------------------------|
Gb|---------------------------------------------|
Db|-0-3-5------5-7-5----8-7-3-----3-------------| Repeat throughout verses
Ab|-0-3-5----5----------8-7-3---3---------------|
Db|-0-3-5---------------8-7-3-------------------|

Lead Guitar
eb|---10b--10-8h10-10--10-6h8-8b~--8~-6-8-6-----------------------------------|
Bb|------------------------------------------8--------------------------------|
Gb|---------------------------------------------------------------------------|
Db|---------------------------------------------------------------------------|
Ab|---------------------------------------------------------------------------|
Db|---------------------------------------------------------------------------|

Chorus 
(the same as verse but more counts per beat)
eb|---------------------------------------------------------------------------|
Bb|---------------------------------------------------------------------------|
Gb|--------x----------------x---------------x---------------------x-----------|
Db|-0-3-5-(5)--------8-7-3-(3)----------- 0-3-5-(5)--------8-7-3-(3)----------|
Ab|-0-3-5—(5)-*16----8-7-3-(3)-*16--------0-3-5—(5)-*16----8-7-3-(3)-*16------|
Db|-0-3-5—(5)--------8-7-3-(3)------------0-3-5—(5)--------8-7-3-(3)----------|


************************************

| /   slide up
| \   slide down
| h   hammer-on
| p   pull-off
| ~   vibrato
| x   Mute note
| b   Bend

************************************

            
            
Suggest correction
Creating personal tab
Creating personal tab
You can edit any tab online and save it as your Personal.

You can edit, replace or remove any tab part or add personal notes – all changes will be seen only by you.

Personal tabs can be accessed anytime from any device, even offline.
Learn more »
Give kudos to tab author, rate the tab!
1 2 3 4 5
comments
print report bad tab
guest
You may want to rate the tab now too:
select rating
Wanna post a correction for this tab? Suggest correction