Oops, an error
Loading. Please wait.

Lollipop tab

version 2
version 2

Interactive

30,437 views 1 this week
3 commentsread comments
1 2 3 4 5
x 5
add to favorites
×
Save as Personal and add changes to this tab that will be seen only by you. Learn more ›
×
You can save this tab as Personal to edit and correct it or add notes. All changes will be seen only by you. Learn more »
launch autoscroll
font size
0
reset
how to read this tab
guitar tuner
edit
Autoscroll
slow
fast
+/-
esc
set tempo
stop
Difficulty
E-------------------------------------------12-12-12-12-----------------|
A----12-12-12-12-12-14-14-14-14-15-15-15-15-----------------------------|
D-----------------------------------------------------------------------|
G-----------------------------------------------------------------------|
B-----------------------------------------------------------------------|
E-----------------------------------------------------------------------|


E-------------------------------------------14-14-14-14-----------------|
A----12-12-12-12-12-14-14-14-14-15-15-15-15-----------------------------|
D-----------------------------------------------------------------------|
G-----------------------------------------------------------------------|
B-----------------------------------------------------------------------|
E-----------------------------------------------------------------------|

            
            
Suggest correction
Creating personal tab
Creating personal tab
You can edit any tab online and save it as your Personal.

You can edit, replace or remove any tab part or add personal notes – all changes will be seen only by you.

Personal tabs can be accessed anytime from any device, even offline.
Learn more »
comments
print report bad tab
3 comments total.
-1 reply
hhspat325 10 Jun 12, 2008 07:45 AM

it's wrong, ver1 is better

0 reply
ECullen 122 Apr 17, 2009 02:14 PM

i like dis one better

0 reply
ECullen 122 Apr 17, 2009 02:15 PM

do it on string 1 nd 2

guest
Wanna post a correction for this tab? Suggest correction