Oops, an error
Loading. Please wait.

Prom Queen tab

version 4
version 4

Whole song

Interactive

13,924 views 1 this week
no commentswrite comment
1 2 3 4 5
1 last vote to show rating
add to favorites
×
Save as Personal and add changes to this tab that will be seen only by you. Learn more ›
×
You can save this tab as Personal to edit and correct it or add notes. All changes will be seen only by you. Learn more »
launch autoscroll
font size
0
reset
how to read this tab
guitar tuner
edit
Autoscroll
slow
fast
+/-
esc
set tempo
stop
Ok so i made a bunch of corrections to the other tab so i figured instead of
annoying the guy id just make my own it was his first tab so i give him
credit but this song is played in the key of G and this is how i play it 

key:
./pm palm mute
b bend
h hammer on
p pull off
~ let ring

Intro:first guitar
E|-------------------------------------------------------------------------|
B|-------------------------------------------------------------------------|
G|-------------------------------------------------------------------------|
D|---5---5---5---5---4---4---4---4---7---7---7---7---9----9----10----------|
A|-----7---7---7---7---5---5---5---5---9---9---9---9---10--10--12----------|
E|-------------------------------------------------------------------------|
second guitar
E|-------------------------------------------------------------------------|
B|-------------------------------------------------------------------------|
G|-------------------------------------------------------------------------|
D|---5---5---5---5---4---4---4---4---7---7---7---7---9----9----10----------|
A|-----7---7---7---7---5---5---5---5---9---9---9---9---10--10--12----------|
E|-------------------------------------------------------------------------|
     . . . . . . . . . . . . . . . . . . . . . . . . . .  . 

Pre Verse(Distortion Starts):this could be played with one or two guitars
what ever sounds best to you it may not be exact but its easy to figure out
the strumming

first guitar
E|------------------------------------------------------|
B|------------------------------------------------------|
G|------------------------------------------------------|
D|-999999997777777710101010101010101212121212-----10----|
A|-77777777555555559-9-9-9-9-9-9-9-1010101010--0--12----|X2
E|---------------------------------------------0--------|
second guitar
E|----------------------------------------------|
B|----------------------------------------------|
G|----------------------------------------------|
D|-555555554444444477777777-9-9-9-9-9-----10----|
A|-7777777755555555999999991010101010--0--12----|X2
E|-------------------------------------0--------|
                                       .

Verse:

E|-------------------------------------------------------------------------|
B|-------------------------------------------------------------------------|
G|-------------------------------------------------------------------------|
D|---5---5---5---5---4---4---4---4---7---7---7---7---9----9----10----------|
A|-----7---7---7---7---5---5---5---5---9---9---9---9---10--10--12----------|
E|-------------------------------------------------------------------------|
 pm----------------------------------------------------------]
E|-------------------------------------------------------------------------|
B|-------------------------------------------------------------------------|
G|-------------------------------------------------------------------------|
D|---5---5---5---5---4---4---4---4---7---7---7---7---9----9----10----------|
A|-----7---7---7---7---5---5---5---5---9---9---9---9---10--10--12----------|
E|-------------------------------------------------------------------------|
  pm----------------------------------------------------------]

E|---------------------------------10-10-10-12bh13p12-10-10-10-12bh13p12-10|
B|-------------------------------------------------------------------------|
G|-------------------------------------------------------------------------|
D|-5---5---5---5---4---4---4---4-------------------------------------------|
A|---7---7---7---7---5---5---5---5-----------------------------------------|
E|-------------------------------------------------------------------------|
  pm------------------------------]

E|---------------------------------10-10-10-12bh13p12-10-10-10-12bh13p12-10|
B|-------------------------------------------------------------------------|
G|-------------------------------------------------------------------------|
D|-5---5---5---5---4---4---4---4-------------------------------------------|
A|---7---7---7---7---5---5---5---5-----------------------------------------|
E|-------------------------------------------------------------------------|
 pm-------------------------------]

E|-------------------------------------------------------------------------|
B|-------------------------------------------------------------------------|
G|-------------------------------------------------------------------------|
D|---5---5---5---5---4---4---4---4---7---7---7---7---9----9--- 9----9------|
A|-----7---7---7---7---5---5---5---5---9---9---9---9---10---10---10---10---|
E|-------------------------------------------------------------------------|
  pm----------------------------------------------------------------------]

E|--------------------------------------------------------------------------|
B|--------------------------------------------------------------------------|
G|--------------------------------------------------------------------------|
D|---5---5---5---5---4---4---4---4---7b-alternate pick while bending--------|
A|-----7---7---7---7---5---5---5---5----------------------------------------|
E|--------------------------------------------------------------------------|
   pm---------------------------------------------------------------]

chorus:
first guitar
E|------------------------------------------------------|
B|------------------------------------------------------|
G|------------------------------------------------------|
D|-999999997777777710101010101010101212121212-----10----|
A|-77777777555555559-9-9-9-9-9-9-9-1010101010--0--12----|X2
E|---------------------------------------------0--------|
                                               .
second guitar
E|----------------------------------------------|
B|----------------------------------------------|
G|----------------------------------------------|
D|-555555554444444477777777-9-9-9-9-9-----10----|
A|-7777777755555555999999991010101010--0--12----|X2
E|-------------------------------------0--------|
                                       .

E|------------------------------------------------|
B|------------10b-10b-10b-10b-10b-10b--12-10------|
G|-------------------------------------------12-9-|
D|------------------------------------------------|
A|------------------------------------------------|
E|------------------------------------------------|X4

Pre Verse:

E|-10-10-10-12-10-10-10-12-|
B|-------------------------|
G|-------------------------|
D|-------------------------|
A|-------------------------|
E|-------------------------|X4

Verse:

E|-------------------------------------------------------------------------|
B|-------------------------------------------------------------------------|
G|-------------------------------------------------------------------------|
D|---5---5---5---5---4---4---4---4---7---7---7---7---9----9----10----------|
A|-----7---7---7---7---5---5---5---5---9---9---9---9---10--10--12----------|
E|-------------------------------------------------------------------------|
 pm----------------------------------------------------------------------]

E|-------------------------------------------------------------------------|
B|-------------------------------------------------------------------------|
G|-------------------------------------------------------------------------|
D|---5---5---5---5---4---4---4---4---7---7---7---7---9----9----10----------|
A|-----7---7---7---7---5---5---5---5---9---9---9---9---10--10--12----------|
E|-------------------------------------------------------------------------|
 pm-----------------------------------------------------------------]

E|-------------------------------------------------------------------------|
B|-------------------------------------------------------------------------|
G|-------------------------------------------------------------------------|
D|---5---5---5---5---4---4---4---4---7---7---7---7---9----9----10----------|
A|-----7---7---7---7---5---5---5---5---9---9---9---9---10--10--12----------|
E|-------------------------------------------------------------------------|
  pm-----------------------------------------------------------------]

E|-------------------------------------------------------------------------|
B|-------------------------------------------------------------------------|
G|-------------------------------------------------------------------------|
D|---5---5---5---5---4---4---4---4---7---7---7---7---9----9----10----------|
A|-----7---7---7---7---5---5---5---5---9---9---9---9---10--10--12----------|
E|-------------------------------------------------------------------------|
 pm-----------------------------------------------------------------]

E|---------------------------------10-10-10-12bh13p12-10-10-10-12bh13p12-10|
B|-------------------------------------------------------------------------|
G|-------------------------------------------------------------------------|
D|-5---5---5---5---4---4---4---4-------------------------------------------|
A|---7---7---7---7---5---5---5---5-----------------------------------------|
E|-------------------------------------------------------------------------|
 pm-------------------------------]
E|---------------------------------10-10-10-12bh13p12-10-10-10-12bh13p12-10|
B|-------------------------------------------------------------------------|
G|-------------------------------------------------------------------------|
D|-5---5---5---5---4---4---4---4-------------------------------------------|
A|---7---7---7---7---5---5---5---5-----------------------------------------|
E|-------------------------------------------------------------------------|
 pm-------------------------------]

chorus:
first guitar
E|------------------------------------------------------|
B|------------------------------------------------------|
G|------------------------------------------------------|
D|-999999997777777710101010101010101212121212-----10----|
A|-77777777555555559-9-9-9-9-9-9-9-1010101010--0--12----|X2
E|---------------------------------------------0--------|
                                               .
second guitar
E|----------------------------------------------|
B|----------------------------------------------|
G|----------------------------------------------|
D|-555555554444444477777777-9-9-9-9-9-----10----|
A|-7777777755555555999999991010101010--0--12----|X2
E|-------------------------------------0--------|
                                       .
solo:
E|------------------------------------------------|
B|------------10b-10b-10b-10b-10b-10b--12-10------|
G|-------------------------------------------12-9-|
D|------------------------------------------------|
A|------------------------------------------------|
E|------------------------------------------------|X4

E|-10-10-10-12-10-10-10-12-|
B|-------------------------|
G|-------------------------|
D|-------------------------|
A|-------------------------|
E|-------------------------|X8

E|------------------------------------------------|
B|------------10b-10b-10b-10b-10b-10b--12-10------|
G|-------------------------------------------12-9-|
D|------------------------------------------------|
A|------------------------------------------------|
E|------------------------------------------------|X3

E|------------------------------------------------|
B|-10b-trem pick while bending---12p10------------|
G|-------------------------------------9h12p9~----|
D|------------------------------------------------|
A|------------------------------------------------|
E|------------------------------------------------|

outro
first guitar
E|------------------------------------------------------|
B|------------------------------------------------------|
G|------------------------------------------------------|
D|-999999997777777710101010101010101212121212-----10----|
A|-77777777555555559-9-9-9-9-9-9-9-1010101010--0--12----| repeat till end
E|---------------------------------------------0--------|
second guitar
E|----------------------------------------------|
B|----------------------------------------------|
G|----------------------------------------------|
D|-555555554444444477777777-9-9-9-9-9-----10----|
A|-7777777755555555999999991010101010--0--12----| repeat till end
E|-------------------------------------0--------|
                                       .


there you go my version of Prom Queen by the best rapper alive Lil wayne enjoy

                       Love will, Music will, I will,
                               Forever Endure
  


            
            
Suggest correction
Creating personal tab
Creating personal tab
You can edit any tab online and save it as your Personal.

You can edit, replace or remove any tab part or add personal notes – all changes will be seen only by you.

Personal tabs can be accessed anytime from any device, even offline.
Learn more »
Give kudos to tab author, rate the tab!
1 2 3 4 5
comments
print report bad tab
guest
You may want to rate the tab now too:
select rating
Wanna post a correction for this tab? Suggest correction