Oops, an error
Loading. Please wait.

Shoot Me Down Bass Tab

version 1
version 1

Whole song

389 views 1 this week
no commentswrite comment
1 2 3 4 5
3 more votes to show rating
add to favorites
launch autoscroll
font size
0
reset
guitar tuner
Autoscroll
slow
fast
+/-
esc
set tempo
stop
Help us to improve Ultimate-Guitar.com Take our survey!
×
Author
Difficulty
novice
100% RIGHT play it like you kicking  the bass pedal with  dead stop no ringing
VERSION 1
MAIN RIFF
G|----------------------------------------------------| |--------| 
D|----------------------------------------------------| |--------|  
A|-----------------------------4-4-4-4-4-4-4-4-2-2-2-2| |2-4/6---|
E|4-4-4-4-4-4-4-0-0-0-0-0-0-0-0-----------------------| |-----2/4|


PAUSE 2:59     BACK IN  AT 3:03 BACK TO MAIN RIFF 
   G|--------| |--------------------------------------|  
   D|--------| |--------------------------------------|
   A|2-4/6---| |---------------4-4-4-4-4-4-4-4-2-2-2-2| 
   E|-----2/4| |0-0-0-0-0-0-0-0-----------------------|

------------    BOTH THE SAME ONE IS LESS OF A STRETCH --------------------

VERSION 2
MAIN
G|-----------------------------------------------------| |-------|
D|-----------------------------------------------------| |-------|
A|-------------------------------4-4-4-4-4-4-4-4-------| |-4/6---| 
E|4-4-4-4-4-4-4-4-0-0-0-0-0-0-0-0---------------7-7-7-7| |7---2/4|
                                                          BASS FILL    
                                                      BASS DOSENT DO THIS            
                                        DO IT WHEN THE GUITAR DOSE 
PAUSE 2:59     BACK IN  AT 3:03 BACK TO MAIN RIFF 
   G|-------| |---------------------------------------|  
   D|-------| |---------------------------------------|
   A|-4/6---| |---------------4-4-4-4-4-4-4-4---------| 
   E|7---2/4| |0-0-0-0-0-0-0-0----------------7-7-7-7-|

Suggest correction
Give kudos to tab author, rate the tab!
1 2 3 4 5
comments
print report bad tab
guest
You may want to rate the tab now too:
select rating
Wanna post a correction for this tab? Suggest correction