Oops, an error
Loading. Please wait.

Orange bass

version 1
version 1

Whole song

Interactive

by Lil'B
109 views 3 this week
no commentswrite comment
1 2 3 4 5
3 more votes to show rating
add to favorites
×
Save as Personal and add changes to this tab that will be seen only by you. Learn more ›
×
You can save this tab as Personal to edit and correct it or add notes. All changes will be seen only by you. Learn more »
launch autoscroll
font size
0
reset
guitar tuner
edit
Autoscroll
slow
fast
+/-
esc
set tempo
stop
Author
-------------------------------------------------------------------------------
                                Orange – Lil’B
-------------------------------------------------------------------------------
Tabbed by: Maryse Lapu
E-mail: ryse.lan@gmail.com 

Tuning: E Standard Tuning (EADG)
Tabbed bass guitar. To clarify tempo and specific rhythms check my accompanying 
Guitar Pro Tab.
Thank you :)


[Intro]

G|------------------------------------------------------------------------|
D|--3--3-----3------------8----5--5-----5---------5--4--------------------| 
A|--------5---------5--8-------------5---------6--------------------------|
E|---------------6--------------------------8-----------------------------|
 
G|------------------------------------------------------------------------|
D|--3--3-----3------------8-----------------------------------------------| 
A|--------5---------5--8-------6--6-----6----6-----6----------------------|
E|---------------6-------------------6----------6-----6-------------------|
          

[Verse 1]

G|------------------------------------------------5-----------------------|
D|--------6-------------8------5-----5--5------5--------------------------| 
A|-----6-------------8------------5---------3--------3--------------------|
E|--4--------4----6--------6----------------------------------------------|

G|-------------------------------------5----------------------------------|
D|--------6-------------8---------5-5-----5---------8---------------------| 
A|-----6-------------8---------3-----------------8------------------------|
E|--4--------4----6--------6------------------6--------6------------------|

G|------------------------------------------------5-----------------------|
D|--------6-------------8------5-----5--5------5--------------------------| 
A|-----6-------------8------------5---------3--------3--------------------|
E|--4--------4----6--------6----------------------------------------------|

G|-------------------------------------------10---------------------------|
D|--------3-------------3-------------8----------8------------------------| 
A|-----3-------------3-------------8-----8----------8---------------------|
E|--1--------1----1--------1----6----------------------6------------------|


[Chorus + Rap 1] (x2)

G|------------------------------------------------------------------------|
D|--3--3-----3------------8----5--5-----5---------5--4--------------------| 
A|--------5---------5--8-------------5---------6--------------------------|
E|---------------6--------------------------8-----------------------------|
 
G|------------------------------------------------------------------------|
D|--3--3-----3------------8-----------------------------------------------| 
A|--------5---------5--8-------3--3-----3----3-----3----------------------|
E|---------------6-------------------3----------3-----3-------------------|

G|------------------------------------------------------------------------|
D|--3--3-----3------------8----5--5-----5---------5--4--------------------| 
A|--------5---------5--8-------------5---------6--------------------------|
E|---------------6--------------------------8-----------------------------|
 
G|------------------------------------------------------------------------|
D|--3--3-----3------------8-----------------------------------------------| 
A|--------5---------5--8-------6--6-----6----6-----6----------------------|
E|---------------6-------------------6----------6-----6-------------------|


[Verse 2]

G|------------------------------------------------5-----------------------|
D|--------6-------------8------5-----5--5------5--------------------------| 
A|-----6-------------8------------5---------3--------3--------------------|
E|--4--------4----6--------6----------------------------------------------|

G|-------------------------------------5----------------------------------|
D|--------6-------------8---------5-5-----5---------8---------------------| 
A|-----6-------------8---------3-----------------8------------------------|
E|--4--------4----6--------6------------------6--------6------------------|

G|------------------------------------------------5-----------------------|
D|--------6-------------8------5-----5--5------5--------------------------| 
A|-----6-------------8------------5---------3--------3--------------------|
E|--4--------4----6--------6----------------------------------------------|

G|-------------------------------------------10---------------------------|
D|--------3-------------3-------------8----------8------------------------| 
A|-----3-------------3-------------8-----8----------8---------------------|
E|--1--------1----1--------1----6----------------------6------------------|


[Chorus + Rap 2] (x2)

G|------------------------------------------------------------------------|
D|--3--3-----3------------8----5--5-----5---------5--4--------------------| 
A|--------5---------5--8-------------5---------6--------------------------|
E|---------------6--------------------------8-----------------------------|
 
G|------------------------------------------------------------------------|
D|--3--3-----3------------8-----------------------------------------------| 
A|--------5---------5--8-------3--3-----3----3-----3----------------------|
E|---------------6-------------------3----------3-----3-------------------|

G|------------------------------------------------------------------------|
D|--3--3-----3------------8----5--5-----5---------5--4--------------------| 
A|--------5---------5--8-------------5---------6--------------------------|
E|---------------6--------------------------8-----------------------------|
 
G|------------------------------------------------------------------------|
D|--3--3-----3------------8-----------------------------------------------| 
A|--------5---------5--8-------6--6-----6----6-----6----------------------|
E|---------------6-------------------6----------6-----6-------------------|


[Bridge] (x2)

G|------------------------------------------------------------------------|
D|------------------------------------------------------------------------|
A|-----6-----6------6-----6------8------8------8------8-------------------|
E|--4-----8------4-----8------6-----10------6-----10----------------------|

G|------------------------------------------------------------------------|
D|------------------------------------------------------------------------|
A|-----10------10------10------10------8------8------8--------------------|
E|--8------11-------8------11-------6-----10------6-----10--6-------------|


[Chorus]

G|------------------------------------------------------------------------|
D|--3--3-----3------------8----5--5-----5---------5--4--------------------| 
A|--------5---------5--8-------------5---------6--------------------------|
E|---------------6--------------------------8-----------------------------|
 
G|------------------------------------------------------------------------|
D|--3--3-----3------------8-----------------------------------------------| 
A|--------5---------5--8------3--3-----3----3-----3-----------------------|
E|---------------6------------------3----------3-----3--------------------|

G|------------------------------------------------------------------------|
D|--3--3-----3------------8----5--5-----5---------5--4--------------------| 
A|--------5---------5--8-------------5---------6--------------------------|
E|---------------6--------------------------8-----------------------------|
 
G|------------------------------------------------------------------------|
D|--3--3-----3------------8-----------------------------------------------| 
A|--------5---------5--8------6--6-----6----6-----6-----------------------|
E|---------------6------------------6----------6--------------------------|


[Verse 3]

G|-----------------8------------------------------------------------------|
D|-------8------------8-------------8-------------------------------------|
A|--8---------6----------10----8---------6---------6---7------------------|
E|------------------------------------------------------------------------|
                               
G|--------------------------------------------------15--------------------|
D|-------8--8------------------------------8------------------------------|
A|--8-----------6-------6----8-------8------------------------------------|
E|------------------------------------------------------------------------|


[Chorus]

G|------------------------------------------------------------------------|
D|--3--3-----3------------8----5--5-----5---------5--4--------------------| 
A|--------5---------5--8-------------5---------6--------------------------|
E|---------------6--------------------------8-----------------------------|
 
G|------------------------------------------------------------------------|
D|--3--3-----3------------8-----------------------------------------------| 
A|--------5---------5--8------3--3-----3----3-----3-----------------------|
E|---------------6------------------3----------3-----3--------------------|

G|------------------------------------------------------------------------|
D|--3--3-----3------------8----5--5-----5---------5--4--------------------| 
A|--------5---------5--8-------------5---------6--------------------------|
E|---------------6--------------------------8-----------------------------|
 
G|------------------------------------------------------------------------|
D|--3--3-----3------------8-----------------------------------------------| 
A|--------5---------5--8------6--6-----6----6-----6-----------------------|
E|---------------6------------------6----------6-----6--------------------|


[Outro]

G|------------------------------------------------------------------------|
D|--3--3-----3------------8----5--5-----5---------5--4--------------------| 
A|--------5---------5--8-------------5---------6--------------------------|
E|---------------6--------------------------8-----------------------------|
 
G|------------------------------------------------------------------------|
D|--3--3-----3------------8-----------------------------------------------| 
A|--------5---------5--8------3--3-----3----3-----3-----------------------|
E|---------------6------------------3----------3-----3--------------------|

G|------------------------------------------------------------------------|
D|--3--3-----3------------8----5--5-----5---------5--4--------------------| 
A|--------5---------5--8-------------5---------6--------------------------|
E|---------------6--------------------------8-----------------------------|
                                                   
G|------------------------------------------------------------------------|
D|--3--3-----3------------8-----------------------------------------------| 
A|--------5---------5--8------6--6-----6----6-----6-----------------------|
E|---------------6------------------6----------6-----6--------------------|


[Breakdown]

G|------------------------------------------------------------------------|
D|--3--3-----3------------8----5--5-----5---------5--4--------------------| 
A|--------5---------5--8-------------5---------6--------------------------|
E|---------------6--------------------------8-----------------------------|
 
G|------------------------------------------------------------------------|
D|--3--3-----3------------8-----------------------------------------------| 
A|--------5---------5--8------3--3-----3----3-----3-----------------------|
E|---------------6------------------3----------3-----3--------------------|

G|------------------------------------------------------------------------|
D|--3--3-----3------------8----5--5-----5---------5--4--------------------| 
A|--------5---------5--8-------------5---------6--------------------------|
E|---------------6--------------------------8-----------------------------|
                                                    
G|------------------------------------------------------------------------|
D|--3--3-----3------------8-----------------------------------------------| 
A|--------5---------5--8------6--6-----6----6-----6-----------------------|
E|---------------6------------------6----------6-----6--------------------|
Suggest correction
Creating personal tab
Creating personal tab
You can edit any tab online and save it as your Personal.

You can edit, replace or remove any tab part or add personal notes – all changes will be seen only by you.

Personal tabs can be accessed anytime from any device, even offline.
Learn more »
Give kudos to tab author, rate the tab!
1 2 3 4 5
comments
print report bad tab
guest
You may want to rate the tab now too:
select rating
Wanna post a correction for this tab? Suggest correction