Oops, an error
Loading. Please wait.

Tsunaida Te Tab

by Lilb
4,227 views 3 this week
2 commentsread comments
1 2 3 4 5
please rate
add to favorites
launch autoscroll
font size
0
reset
how to read this tab
guitar tuner
Autoscroll
slow
fast
+/-
esc
set tempo
stop
Help us to improve Ultimate-Guitar.com Take our survey!
×
Author
Difficulty
novice
Lil'B - Tsunaida Te 
Tabbed by: Arvin G.
Email: arvin_cut3143@yahoo.com

Tuning Standard 

Chords:
Cm: x35543
G#: 466544
A#: 688766
D#: x68886 (also known as Eb)
Dm: x57765

Intro:
 
        Cm                 G#               A#                D#
E|----------------|-----------------|-----------------|-----------------|
B|---------4------|----------4------|----------6------|----------8------|
G|--5-------------|-----------------|-----------------|--8----------8---|
D|------5-----5---|--6----------6---|--8----------8---|-------8---------|
A|--3-------------|-------6---------|-------8---------|--6--------------|
E|----------------|--4--------------|--6--------------|-----------------|

        Cm                 G#               A#                D#
E|----------------|-----------------|-----------------|-----------------|
B|---------4------|----------4------|----------6------|----------8------|
G|--5-------------|-----------------|-----------------|--8----------8---|
D|------5-----5---|--6----------6---|--8----------8---|-------8---------|
A|--3-------------|-------6---------|-------8---------|--6--------------|
E|----------------|--4--------------|--6--------------|-----------------|

     meguri       megutte     mo   mata koko    de      aitai

        Cm                 G#               A#                D#
E|----------------|-----------------|-----------------|-----------------|
B|---------4------|----------4------|----------6------|----------8~ ----|
G|--5-------------|-----------------|-----------------|--8--------------|
D|------5-----5---|--6----------6---|--8----------8---|-------8---------|
A|--3-------------|-------6---------|-------8---------|--6--------------|
E|----------------|--4--------------|--6--------------|-----------------|

     hagurenai       youni      kono    te  wo     tsunagunda


[Rap Part]

  Cm                  G#
asahi ga noboru made katari atta ne

  A#               D#
yuuhi ga shizumu made tsunaida te

  Cm        G#              A#
kou yatte asu mo asatte mo tomo ni

        D#
ayumou hikari to kage


[Verse]

 Cm           G#          A#      D# - Dm
kimi wa sono mune ni nani wo kakae

 Cm             G#        A#       D# - Dm
donna sekai ni itandarou ima omou yo

 Cm             G#           A#       D# - Dm
samishige ni mitsumeru machi no naka de

 Cm            G#          A#        D# 
nukumori wa hitori ja mitsukara nakute


[Refrain]

   G#             Cm        
ai ga konna ni tsuyosa ni naru koto

    A#              D#         Dm
shittanda kimi ni deaete hajimete


[Chorus]

 Cm        G#         A#       D# 
meguri meguttemo mata koko de aitai

 Cm        G#         A#        D# 
hagurenai youni kono te wo tsunagunda

 Cm        G#            A#       D#
hitori ja nemurenai yume wa mirenai kara

 Cm      G#        A#     D# 
donna fuan mo todokanai tokoroe

 Cm        G#         A#          D# 
hoshi mo nai yoru mo terashi tsuzukeyou


[ Cm - G# - A# - D# ]
Doko made mo ikeru kimi to nara
Hitori ja arukenai michi mo futari nara
Hanauta utai nagara arukerun da
Kimi ga ireba shiawase

[ Cm - G# - A# - D# - Dm ]
Moshimo futari ga deatte nakatta nara
Takusan no shiawase wo minogashiteta
Fuan na toki wa gyutto shite kureta ne
Asu wo miushinai sou na hitogomi no naka

[ G# - Cm - A# - D# - Dm]       
Ai ga kurushii hitori no jikan wa
Sabishisa wo gomakasu sube wo wasureteta

[ Cm - G# - A# - D# ]
Nando mo kono te wo tsunagi naoshi nagara
Donna michi datte issho ni arukun da
Hitori ja kanawanai yume wo egaita nara
Kimi to futari de kanae ni ikun da
Kimi to hanbun hitotsu no shiawase

[ Cm - G# - A# - D# ]
Butsukari sou na kurai hito ooi doyoubi
Miushinaitakunai kimi no sonzai
Kono toki nibai ni chikara haitteru te ni
Kanjita nukumori to ai no more cry
Aseta jiinzu no poketto de hikatteru
Kimi no keitai kizukasetakunai
Damarikomu watashi no naka no kouwa akumai
Tada kimi ga inai to iya dakara...
Nanika ga ubaisarisou de kowai
“Taisetsu na hito” to tsunagattetai
Omoi wa dare ni mo makenai
Sou kono machi ni kirawareru kurai te wo tsunagou

 Cm          D#   A#         D#
Yowamushi na hodo tsuyogatte shimau
 Cm       G#       A#         D#
Demo muri da yo... Naitemo ii kana?
 Cm         G#       A#          D#
Aki no kaze mou sugu deatta kisetsu
 G#         Cm         G#        Cm   Bb
Ano koro no watashi wa ai wo sagashiteta

[ Cm - G# - A# - D# ]
Meguri meguttemo 
Mata koko de aitai
Hagurenai you ni kono te wo tsunagun da
Hitori ja nemurenai yume wa mirenai kara
Donna fuan mo todokanai tokoro e
Hitori ja kanawanai yume wo egaita nara
Kimi to futari de kanae ni ikun da
Kimi to hanbun hitotsu no shiawase

http://www.lilb.jp/
Suggest correction
Give kudos to tab author, rate the tab!
1 2 3 4 5
comments
print report bad tab
2 comments total.
0 reply
shearer_9 200 wrote on June 6 2010, 02:15 am

capo 1 on this

0 reply
arvinguinto 138 wrote on August 7 2013, 08:53 pm

Thx for the info updated it so it won't need capo.

guest
You may want to rate the tab now too:
select rating
Wanna post a correction for this tab? Suggest correction