Oops, an error
Loading. Please wait.

Prayer In C Tab

version 1
version 1

Whole song

Interactive

Video

361,774 views 2,025 this week
9 commentsread comments
1 2 3 4 5
excellent!
x 183
add to favorites
launch autoscroll
font size
0
reset
how to read this tab
guitar tuner
Tab Pro tools
  • play this tab
  • loop segment
  • change instrument
  • show fretboard
  • metronome
×
Best way to learn
"Prayer In C"
Autoscroll
slow
fast
+/-
esc
set tempo
stop
Contributor
Difficulty
novice
-------------------------------------------------------------------------------
                             Prayer in C - Lilly Wood and the Prick
-------------------------------------------------------------------------------
Tabbed by: Tredji

Tuning: standard

based on the acoustic live version of that song played @L'Ouvre Boîte



verse

e|-----5---5-7-8-5---------------------------------------------------------|
B|-----------------------5---5-6-5-----3---3-5-6-3-----6---6-8-6-----------|
G|-------------------------------------------------------------------------|
D|-------------------------------------------------------------------------|
A|-----------------------3-----------------------------5-------------------|
E|-----5-------------------------------3-----------------------------------|



chorus
    
     Am     C      G     Dm
e|---5------3------3------5--------------------------------------------------|
B|---5------5------3------6--------------------------------------------------|
G|---5------5------4------7--------------------------------------------------|
D|---7------5------5------7--------------------------------------------------|
A|---7------3------5------5--------------------------------------------------|
E|---5------3------3------5--------------------------------------------------|

comments
print report bad tab
9 comments total. Showing first comments.
0 reply
Tredji wrote on June 18 2014, 07:00 am, edited at 07:03 am

A little update was added on June 18th.The 2nd bass note in the verse part has to be a C instead of an A. Now it's correct.

+24 reply
Ukimasta wrote on August 24 2014, 08:34 am

e|-----5---5-7-8-0--------0--0-1-0-----------0-1--------1--1-3-1-----------|
B|-------------------------------------3---3-----3-------------------------|
G|-------------------------------------------------------------------------|
D|------------------------------------------------------0------------------|
A|-----0------------------3------------------------------------------------|
E|-------------------------------------3-----------------------------------|

Try this for Intro and Vers.

-1 reply
hijoert wrote on October 3 2014, 09:19 am

Lack of accuracy. Missing all the bass notes, the bridge and other subtilities in the melody. Good but not excellent. Worth a new, more detailed tab.

I want to post or [tab]
guest
You may want to rate the tab now too:
select rating
Please do not post tabs as comments. Select "correction" instead!