Oops, an error
Loading. Please wait.

Guess Who Batman bass

1,468 views 1 this week
1 commentread comment
1 2 3 4 5
3 more votes to show rating
add to favorites
×
Save as Personal and add changes to this tab that will be seen only by you. Learn more ›
×
You can save this tab as Personal to edit and correct it or add notes. All changes will be seen only by you. Learn more »
launch autoscroll
font size
0
reset
guitar tuner
edit
Autoscroll
slow
fast
+/-
esc
set tempo
stop
Author
Difficulty
Artist: Lily Allen
Title: Guess Who Batman

~ let note ring
. eighth note

0:00 Intro
No bass

0:22 Verse
"So you say..."
G|------------------------------------------------------------------------|
D|------------------------------------------------------------------------|
A|-7-7-7-7-7-7-7-7-7-4-4-4-4-4-4-4-4-4-4-4---------------------0~~~~2~~~~-|
E|-----------------------------------------2-2-2-2-2-2-2-2-2-2------------|

0:39 Chorus
"F*ck you..."
G|-------------------------------------------------------------|
D|-2---2-----2-6---6-6.4-2-1-----------------------------------|
A|---2---2-2.----6-----------4---4-----4-2-4-4.2.2.1.2.4.2.1.2-|x2
E|-----------------------------4---4-4.------------------------|

1:08 Verse x2

1:40 Chorus

2:09 "Look inside..." 
No bass

2:24 Chorus x2


I think this is as accurate as I'm gonna get. Hope you enjoy!

Tabbed by: Hannolyn [strire]
Email: hannolyn@gmail.com
Suggest correction
Creating personal tab
Creating personal tab
You can edit any tab online and save it as your Personal.

You can edit, replace or remove any tab part or add personal notes – all changes will be seen only by you.

Personal tabs can be accessed anytime from any device, even offline.
Learn more »
Give kudos to tab author, rate the tab!
1 2 3 4 5
comments
print report bad tab
1 comment total.
0 reply
strire 115 Jul 11, 2008 02:31 PM

AHHHH! :O I screwed up on the first 8 notes! They used to be at 2nds but found that 7s on A sounded much closer to the song. I forgot to change them to A! CRAP.

0:22 Verse
"So you say..."
G|------------------------------------------------------------------------|
D|------------------------------------------------------------------------|
A|-7-7-7-7-7-7-7-7-7-4-4-4-4-4-4-4-4-4-4-4---------------------0~~~~2~~~~-|
E|-----------------------------------------2-2-2-2-2-2-2-2-2-2------------|

guest
You may want to rate the tab now too:
select rating
Wanna post a correction for this tab? Suggest correction