Oops, an error
Loading. Please wait.

Ldn solo tab

version 1
version 1

Solo

Whole song

Interactive

1,254 views 1 this week
2 commentsread comments
1 2 3 4 5
1 last vote to show rating
add to favorites
×
Save as Personal and add changes to this tab that will be seen only by you. Learn more ›
×
You can save this tab as Personal to edit and correct it or add notes. All changes will be seen only by you. Learn more »
launch autoscroll
font size
0
reset
how to read this tab
guitar tuner
edit
Autoscroll
slow
fast
+/-
esc
set tempo
stop
This is my adaptation of the intro trumpet riff from LDN - I found a way that's a little 
to play and it sounds nice. Have funsies!

CAPO 5th fret, Standard tuning


|-----------------0-|------------------|
|-------4------3----|------4-------3---|
|----4----4--3------|---4-----4--3-----|
|-------------------|-----------------4|
|-------------------|------------------|
|-------------------|------------------|

            
            
Suggest correction
Creating personal tab
Creating personal tab
You can edit any tab online and save it as your Personal.

You can edit, replace or remove any tab part or add personal notes – all changes will be seen only by you.

Personal tabs can be accessed anytime from any device, even offline.
Learn more »
Give kudos to tab author, rate the tab!
1 2 3 4 5
comments
print report bad tab
2 comments total.
+1 reply
uk.mace 393 Aug 03, 2010 06:11 AM

I believe that should be like this:

|-----------------0-|------------------|
|-------4------2----|------4-------2---|
|----4----4--3------|---4-----4--3-----|
|-------------------|-----------------4|
|-------------------|------------------|
|-------------------|------------------|

0 reply
irislynmonteith 10 Mar 30, 2016 06:57 PM

The tab is too short and it sound NOTHING like the actual intro or ant part of LDN. I like this song and if you get it right that would be amazing.

guest
You may want to rate the tab now too:
select rating
Wanna post a correction for this tab? Suggest correction