Oops, an error
Loading. Please wait.

Not Fair bass

version 3
version 3

Whole song

  • My version is different because it has the correct bass runs after the verse.

Interactive

115 views 1 this week
no commentswrite comment
1 2 3 4 5
3 more votes to show rating
add to favorites
×
Save as Personal and add changes to this tab that will be seen only by you. Learn more ›
×
You can save this tab as Personal to edit and correct it or add notes. All changes will be seen only by you. Learn more »
launch autoscroll
font size
0
reset
guitar tuner
backing track
0:00
0:00
edit
Autoscroll
slow
fast
+/-
esc
set tempo
stop
Author
About this tab version
My version is different because it has the correct bass runs after the verse. Was this info helpful? Yes No
Not Fair
Single released by Lily Allen reached number 5 in 2009 UK charts
Bass performance Greg Kurstin. Tab by bass50611. As per original
Recording including ‘correct’ bass runs at the end of a verse. 
Comments bass254@btinternet.com 

Intro:
G|---------------------------------|
D|---------------------------------|
A|-5---5---5---5---8---8---8---8---|
E|---5---5---5---5---8---8---8---8-|

Verse 1:
G|---------------------------------------------------------------------|
D|---------------------------------------------------------------------|
A|-5---5---5---5---8---8---8---8---5---5---5---5---8---8---8---8-8-7-6-|
E|---5---5---5---5---8---8---8---8---5---5---5---5---8---8---8---------|

Verse 2:
G|---------------------------------------------------------------------|
D|---------------------------------------------------------------------|
A|-5---5---5---5---8---8---8---8---5---5---5---5---8---8---8---8-8-7-6-|
E|---5---5---5---5---8---8---8---8---5---5---5---5---8---8---8---------|

Chorus:
G|-----------------------------------------------------------------|
D|-5---5-----8---8-----------------------------------------8---8---|
A|---5---5-----8---8---8---8-------10----10---10----10-------8---8-|
E|-----------------------8---8---8----8----8-----10----10----------|

G|-------------------------------------------------------------------|
D|-------------------------------------8---8-------------------------|
A|---10---10---10---10----10----10-------8---8---8---8------10---10--|
E|-8----8----8----8---8------10----10-------------8---8---8----8---8-|

G|-------------------------------------------|
D|--------------8---8------------------------|
A|-10----10-------8---8----10---10---10---10-|
E|----10----10-----------8----8----8----8----|

Verse 3:
G|---------------------------------------------------------------------|
D|---------------------------------------------------------------------|
A|-5---5---5---5---8---8---8---8---5---5---5---5---8---8---8---8-8-7-6-|
E|---5---5---5---5---8---8---8---8---5---5---5---5---8---8---8---------|

Verse 4:
G|---------------------------------------------------------------------|
D|---------------------------------------------------------------------|
A|-5---5---5---5---8---8---8---8---5---5---5---5---8---8---8---8-8-7-6-|
E|---5---5---5---5---8---8---8---8---5---5---5---5---8---8---8---------|

Chorus:
G|-----------------------------------------------------------------|
D|-5---5-----8---8-----------------------------------------8---8---|
A|---5---5-----8---8---8---8-------10----10---10----10-------8---8-|
E|-----------------------8---8---8----8----8-----10----10----------|

G|-------------------------------------------------------------------|
D|-------------------------------------8---8-------------------------|
A|---10---10---10---10----10----10-------8---8---8---8------10---10--|
E|-8----8----8----8---8------10----10-------------8---8---8----8---8-|

G|-------------------------------------------|
D|--------------8---8------------------------|
A|-10----10-------8---8----10---10---10---10-|
E|----10----10-----------8----8----8----8----|

Solo:                                                             (Pause)
G|-------------------------------------------------------------------|
D|-------------------------------------------------------------------|
A|-5---5---5---5---8---8---8---8---5---5---5---5---8---8---8---8---8-|
E|---5---5---5---5---8---8---8---8---5---5---5---5---8---8---8---8---|

Verse 5:  (NO BASS)

Chorus:
G|-----------------------------------------------------------------|
D|-5---5-----8---8-----------------------------------------8---8---|
A|---5---5-----8---8---8---8-------10----10---10----10-------8---8-|
E|-----------------------8---8---8----8----8-----10----10----------|

G|-------------------------------------------------------------------|
D|-------------------------------------8---8-------------------------|
A|---10---10---10---10----10----10-------8---8---8---8------10---10--|
E|-8----8----8----8---8------10----10-------------8---8---8----8---8-|

                                            (Bass Chord/End)
G|---------------------------------------------10-|
D|--------------8---8-----------------------------|
A|-10----10-------8---8----10---10---10---10----8-|
E|----10----10-----------8----8----8----8---------|



Oh he treats me with respect
He says he loves me all the time
He calls me 15 times a day
He likes to make sure that I'm fine
You know I've never met a man
Who's made me feel quite so secure
He's not like all them other boys
They're all so dumb and immature

There's just one thing
That's getting in the way
When we go up to bed
You're just no good
Its such a shame
I look into your eyes
I want to get to know you
And then you make this noise
And its apparent it's all over

It's not fair
And I think you're really mean
I think you're really mean
I think you're really mean
Oh you're supposed to care
But you never make me scream
You never make me scream

Oh it's not fair
And it's really not ok
It's really not ok
It's really not ok
Oh you're supposed to care
But all you do is take
Yeah all you do is take

Oh I lie here
In the wet patch
In the middle of the bed
I'm feeling pretty
Damn hard done by
I spent ages giving head
Then I remember
All the nice things
That you ever said to me
Maybe I'm just overreacting
Maybe you're the one for me

There's just one thing
That's getting in the way
When we go up to bed
You're just no good
It's such a shame
I look into your eyes
I want to get to know you
And then you make this noise
And it's apparent it's all over

It's not fair
And I think you're really mean
I think you're really mean
I think you're really mean
Oh you're supposed to care
But you never make me scream
You never make me scream

Oh it's not fair
And it's really not ok
It's really not ok
It's really not ok
Oh you're supposed to care
But all you do is take
Yeah all you do is take

There's just one thing
That's getting in the way
When we go up to bed
You're just no good
It's such a shame
I look into your eyes
I want to get to know you
And then you make this noise
And its apparent it's all over

It's not fair
And I think you're really mean
I think you're really mean
I think you're really mean
Oh you're supposed to care
But you never make me scream
You never make me scream

Oh it's not fair
And it's really not ok
It's really not ok
It's really not ok
Oh you're supposed to care
But all you do is take
Yeah all you do is take

            
            
Suggest correction
Creating personal tab
Creating personal tab
You can edit any tab online and save it as your Personal.

You can edit, replace or remove any tab part or add personal notes – all changes will be seen only by you.

Personal tabs can be accessed anytime from any device, even offline.
Learn more »
Give kudos to tab author, rate the tab!
1 2 3 4 5
comments
print report bad tab
guest
You may want to rate the tab now too:
select rating
Wanna post a correction for this tab? Suggest correction