Oops, an error
Loading. Please wait.

Stuck On The Puzzle Cover chords

271 views 6 this week
2 commentsread comments
1 2 3 4 5
x 3
add to favorites
×
Save as Personal and add changes to this tab that will be seen only by you. Learn more ›
×
You can save this tab as Personal to edit and correct it or add notes. All changes will be seen only by you. Learn more »
launch autoscroll
font size
0
reset
transpose
0
reset
display chords
guitar tuner
edit
Autoscroll
slow
fast
+/-
esc
set tempo
stop
About this tab version
I've included some of the piano part in the tabs to make the guitar part sound better when played without piano accompaniment. Was this info helpful? Yes No
Strumming
There is no strumming pattern for this song yet. and get +5 IQ
[Intro]
E |------------------|-----------------|-----------------|-----------------|
B |-----0---1--------|-----1---2-------|---------2-------|-----------------|
G |---1---1---1----1-|---1---2---2---2-|-----2-------2---|-----------------|
D |--------------2---|-2-----------2---|---4---4---4---4-|-----------------|
A |------------------|-----------------|-----------------|-----------------|
E |--0---------------|-----------------|-2---------------|-----------------|

E |------------------|-----------------|-----------------|-----------------|
B |-----0---1--------|-----1---2-------|---------2-------|---------2-------|
G |---1---1---1----1-|---1---2---2---2-|-----2-------2---|-----2-------2---|
D |--------------2---|-2-----------2---|---4---4---4---4-|---4---4---4---4-|
A |------------------|-----------------|-----------------|-----------------|
E |--0---------------|-----------------|-2---------------|-2---------------|

[Verse]
    E               G#                A             F#m
I'm not the kind of fool who's gonna sit and sing to you, about stars girl
    E                 G#             A            F#m (strum once)
But last night I look up into the dark half of the blue, and they've gone backwards.

[Pre-Chorus]
A                 B         E                        G#
Something in your magnetism must have pissed them off
A               B            E          G#
Forcing them to get an early night
A           B                  E             G#                         A
I have been searching from the bottom to the top for such a site
Am (strum once)
As the one I caught when I saw your 

[Chorus]
E       B           F#m
Fingers dimming the lights
          E             B              F#m
Like your used to being told that your trouble
      E     B   F#m                 E        B       F#m
And I spent all night, stuck on the puzzle

[Verse]
D |------------------|-----------------|-----------------|-----------------|
A |-----0---1--------|-----1---2-------|---------2-------|---------2-------|
F#|---1---1---1----1-|---1---2---2---2-|-----2-------2---|-----2-------2---|
D |--------------2---|-2-----------2---|---4---4---4---4-|---4---4---4---4-|
A |------------------|-----------------|-----------------|-----------------|
D |--0---------------|-----------------|-2---------------|-2---------------|
Nobody I asked knew how he came to be the one who you surrendered.

D |------------------|-----------------|-----------------|-----------------|
A |-----0---1--------|-----1---2-------|---------2-------|---------2-------|
F#|---1---1---1----1-|---1---2---2---2-|-----2-------2---|-----2-------2---|
D |--------------2---|-2-----------2---|---4---4---4---4-|---4---4---4---4-|
A |------------------|-----------------|-----------------|-----------------|
D |--0---------------|-----------------|-2---------------|-2---------------|
Any man who wasn't led away into the other room stood pretending

[Pre-Chorus]
A                      B         E                     G# 
That something in your magnetism hadn't just made him drop
A                 B               E         G# 
Whoever's hand it was that he was holding
A           B                  E             G#              A
I have been searching from the bottom to the top for such a site
Am (strum once)
As the one I caught when I saw your 

[Chorus]
E       B           F#m
Fingers dimming the lights
          E             B              F#m
Like your used to being told that your trouble
      E     B   F#m                  E      B    F#m
And I spent all night, stuck on the puzzle
  E        B           F#m
I tried to swim to the side
       E        B            F#m
But my feet got caught in the middle
      E           G#       A     F#m
And I thought Id seen the light
          B A
But oh no, 
G#            F#m          E     B    F#m
   I was just stuck on the puzzle
               E     B    F#m
Stuck on the puzzle

[Outro]
E       B       F#m   
E       B       F#m   

            
            
Suggest correction
Creating personal tab
Creating personal tab
You can edit any tab online and save it as your Personal.

You can edit, replace or remove any tab part or add personal notes – all changes will be seen only by you.

Personal tabs can be accessed anytime from any device, even offline.
Learn more »
Give kudos to tab author, rate the tab!
1 2 3 4 5
comments
print report bad tab
2 comments total.
0 reply
hitelax19 10 Aug 19, 2017 01:18 AM

Is the tabbed part supposed to be in open D tuning? Or the whole song because the top says standard and the tabs and open D I mean the chords sound great! Very easy to read thane play all the changes line up very well! Good job, Nosnip!

guest
You may want to rate the tab now too:
select rating
Wanna post a correction for this tab? Suggest correction