Oops, an error
Loading. Please wait.

Because Its Midnite tab

version 4
version 4

Whole song

Interactive

5,373 views 1 this week
3 commentsread comments
1 2 3 4 5
x 7
add to favorites
×
Save as Personal and add changes to this tab that will be seen only by you. Learn more ›
×
You can save this tab as Personal to edit and correct it or add notes. All changes will be seen only by you. Learn more »
launch autoscroll
font size
0
reset
how to read this tab
guitar tuner
backing track
0:00
0:00
edit
Autoscroll
slow
fast
+/-
esc
set tempo
stop
Author
Difficulty
intermediate
I couldn't get the note lengths for the intro figured out in powertab for the
life of me, so here's the just plain tab version.

Gtr I (E A D G B E) - 'lead'
Gtr II (E A D G B E) - 'rhythm'

[INTRO/OUTRO RIFF]
   Gtr I
e|------------------------------------10-13-10-----------------13-------13-15-17p15p13-15-17-20-22|
B|-10----10-8----13----13-10----10-13-----------15----15-13-15------------------------------------|
G|------------10-------------12-------------------------------------------------------------------|
D|------------------------------------------------------------------------------------------------|
A|------------------------------------------------------------------------------------------------|
E|------------------------------------------------------------------------------------------------|
 |
 | Gtr II
e|-------------------------------------------------------------------------|
B|-------------------------------------------------------------------------|
G|-7-7-7-7-7-7-7-10-10-10-10-10-10-10-7-5-5-5-5-5-5-5-7-7-7-7-7-7-7-7------|
D|-7-7-7-7-7-7-7-10-10-10-10-10-10-10-7-5-5-5-5-5-5-5-7-7-7-7-7-7-7-5------|Play2x
A|-5-5-5-5-5-5-5--8--8--8--8--8--8--8-5-3-3-3-3-3-3-3-5-5-5-5-5-5-5-5------|
E|-------------------------------------------------------------------------|

[Verse]
   Gtr I
e|-------------------------------------------------------------------------|
B|-------------------------------------------------------------------------|
G|-5-7-7-5-7-7-7-5--5--9--5--9--5-9-5-5-7-7-5-7-7-5--7--7-7-7-7-7-7-7------|
D|-------------------------------------------------------------------------|
A|-------------------------------------------------------------------------|
E|-------------------------------------------------------------------------|
 |
 | Gtr II
e|-------------------------------------------------------------------------|
B|-------------------------------------------------------------------------|
G|-7-7-7-7-7-7-7-10-10-10-10-10-10-10-7-5-5-5-5-5-5-5-7-7-7-7-7-7-7-7------|
D|-7-7-7-7-7-7-7-10-10-10-10-10-10-10-7-5-5-5-5-5-5-5-7-7-7-7-7-7-7-5------|
A|-5-5-5-5-5-5-5--8--8--8--8--8--8--8-5-3-3-3-3-3-3-3-5-5-5-5-5-5-5-5------|
E|-------------------------------------------------------------------------|
                                                                 
    Gtr I                                                       
e|-------------------------------------------------------------------------|
B|-------------------------------------------------------------------------|
G|-5-7-7-5-7-7-7--5-------5--9--5--9--5--9-5-5-7-7-5-7-7-5-7---------------|
D|-------------------------------------------------------------------------|
A|-------------------------------------------------------------------------|
E|-------------------------------------------------------------------------|
 |  Gtr II
e|-------------------------------------------------------------------------|
B|-------------------------------------------------------------------------|
G|-7-7-7-7-7-7-7-10-(10)-10-10-10-10-10-10-7-5-5-5-5-5-5-5-7---------------|
D|-7-7-7-7-7-7-7-10-(10)-10-10-10-10-10-10-7-5-5-5-5-5-5-5-7---------------|
A|-5-5-5-5-5-5-5--8--(8)--8--8--8--8--8--8-5-3-3-3-3-3-3-3-5---------------|
E|-------------------------------------------------------------------------|

[Chorus]
    Gtr I                                                                       
e|------------------------------------------------------------------------------|
B|------------------------------------------------------------------------------|
G|-7-------9-10-9--5---7-----------10-----9-7-5-7-9-7---------------------------|
D|------------------------------------------------------------------------------|2x
A|------------------------------------------------------------------------------|
E|------------------------------------------------------------------------------|
 |
 |  Gtr II
e|------------------------------------------------------------------------------|
B|------------------------------------------------------------------------------|
G|-7-7-7-7-7--7-7-10-(10)-10-10-10-10-10-10-7-5-5-5-5-5-5-5-7-(7)-7-7-7-7-7-7-7-|
D|-7-7-7-7-7--7-7-10-(10)-10-10-10-10-10-10-7-5-5-5-5-5-5-5-7-(7)-7-7-7-7-7-7-7-|2x
A|-5-5-5-5-5--5-5--8--(8)--8--8--8--8--8--8-5-3-3-3-3-3-3-3-5-(5)-5-5-5-5-5-5-5-|
E|------------------------------------------------------------------------------|

[Verse]
   Gtr I
e|-------------------------------------------------------------------------|
B|-------------------------------------------------------------------------|
G|-5-7-7-5-7-7-7-5--5--9--5--9--5-9-5-5-7-7-5-7-7-5--7--7-7-7-7-7-7-7------|
D|-------------------------------------------------------------------------|
A|-------------------------------------------------------------------------|
E|-------------------------------------------------------------------------|
 |
 | Gtr II
e|-------------------------------------------------------------------------|
B|-------------------------------------------------------------------------|
G|-7-7-7-7-7-7-7-10-10-10-10-10-10-10-7-5-5-5-5-5-5-5-7-7-7-7-7-7-7-7------|
D|-7-7-7-7-7-7-7-10-10-10-10-10-10-10-7-5-5-5-5-5-5-5-7-7-7-7-7-7-7-5------|
A|-5-5-5-5-5-5-5--8--8--8--8--8--8--8-5-3-3-3-3-3-3-3-5-5-5-5-5-5-5-5------|
E|-------------------------------------------------------------------------|
                                                                 
    Gtr I                                                       
e|-------------------------------------------------------------------------|
B|-------------------------------------------------------------------------|
G|-5-7-7-5-7-7-7--5-------5--9--5--9--5--9-5-5-7-7-5-7-7-5-7---------------|
D|-------------------------------------------------------------------------|
A|-------------------------------------------------------------------------|
E|-------------------------------------------------------------------------|
 |  Gtr II
e|-------------------------------------------------------------------------|
B|-------------------------------------------------------------------------|
G|-7-7-7-7-7-7-7-10-(10)-10-10-10-10-10-10-7-5-5-5-5-5-5-5-7---------------|
D|-7-7-7-7-7-7-7-10-(10)-10-10-10-10-10-10-7-5-5-5-5-5-5-5-7---------------|
A|-5-5-5-5-5-5-5--8--(8)--8--8--8--8--8--8-5-3-3-3-3-3-3-3-5---------------|
E|-------------------------------------------------------------------------|

[Chorus]
    Gtr I                                                                       
e|------------------------------------------------------------------------------|
B|------------------------------------------------------------------------------|
G|-7-------9-10-9--5---7-----------10-----9-7-5-7-9-7---------------------------|
D|------------------------------------------------------------------------------|2x
A|------------------------------------------------------------------------------|
E|------------------------------------------------------------------------------|
 |
 |  Gtr II
e|------------------------------------------------------------------------------|
B|------------------------------------------------------------------------------|
G|-7-7-7-7-7--7-7-10-(10)-10-10-10-10-10-10-7-5-5-5-5-5-5-5-7-(7)-7-7-7-7-7-7-7-|
D|-7-7-7-7-7--7-7-10-(10)-10-10-10-10-10-10-7-5-5-5-5-5-5-5-7-(7)-7-7-7-7-7-7-7-|2x
A|-5-5-5-5-5--5-5--8--(8)--8--8--8--8--8--8-5-3-3-3-3-3-3-3-5-(5)-5-5-5-5-5-5-5-|
E|------------------------------------------------------------------------------|

[KEYBOARD SOLO]
    Gtr II
e|--------------------------------|
B|--------------------------------|
G|-7-7-7-7-7-7-7-12--10--5--5-5-5-| Play 4x
D|-7-7-7-7-7-7-7-12--10--5--5-5-5-|
A|-5-5-5-5-5-5-5-10---8--3--3-3-3-|
E|--------------------------------|

[Bridge]
     Gtr I
e|----------------------------------------------------------------------------|
B|----------------------------------------------------------------------------|
G|----------------------------------------------------------------------------|
D|------------------------------------------------------5-5-5-7-7-7-----------|
A|-7-8-7-3-5-(5)-8--7-8-7-3-5-(5)-3--7-8-7-3-5-(5)-8----3-3-3-5-5-5--8p7p5----|
E|----------------------------------------------------------------------------|

[Verse]
   Gtr I
e|-------------------------------------------------------------------------|
B|-------------------------------------------------------------------------|
G|-5-7-7-5-7-7-7-5--5--9--5--9--5-9-5-5-7-7-5-7-7-5--7--7-7-7-7-7-7-7------|
D|-------------------------------------------------------------------------|
A|-------------------------------------------------------------------------|
E|-------------------------------------------------------------------------|
 |
 | Gtr II
e|-------------------------------------------------------------------------|
B|-------------------------------------------------------------------------|
G|-7-7-7-7-7-7-7-10-10-10-10-10-10-10-7-5-5-5-5-5-5-5-7-7-7-7-7-7-7-7------|
D|-7-7-7-7-7-7-7-10-10-10-10-10-10-10-7-5-5-5-5-5-5-5-7-7-7-7-7-7-7-5------|
A|-5-5-5-5-5-5-5--8--8--8--8--8--8--8-5-3-3-3-3-3-3-3-5-5-5-5-5-5-5-5------|
E|-------------------------------------------------------------------------|
                                                                 
    Gtr I                                                       
e|-------------------------------------------------------------------------|
B|-------------------------------------------------------------------------|
G|-5-7-7-5-7-7-7--5-------5--9--5--9--5--9-5-5-7-7-5-7-7-5-7---------------|
D|-------------------------------------------------------------------------|
A|-------------------------------------------------------------------------|
E|-------------------------------------------------------------------------|
 |  Gtr II
e|-------------------------------------------------------------------------|
B|-------------------------------------------------------------------------|
G|-7-7-7-7-7-7-7-10-(10)-10-10-10-10-10-10-7-5-5-5-5-5-5-5-7---------------|
D|-7-7-7-7-7-7-7-10-(10)-10-10-10-10-10-10-7-5-5-5-5-5-5-5-7---------------|
A|-5-5-5-5-5-5-5--8--(8)--8--8--8--8--8--8-5-3-3-3-3-3-3-3-5---------------|
E|-------------------------------------------------------------------------|

[Chorus]
    Gtr I                                                                       
e|------------------------------------------------------------------------------|
B|------------------------------------------------------------------------------|
G|-7-------9-10-9--5---7-----------10-----9-7-5-7-9-7---------------------------|
D|------------------------------------------------------------------------------|2x
A|------------------------------------------------------------------------------|
E|------------------------------------------------------------------------------|
 |
 |  Gtr II
e|------------------------------------------------------------------------------|
B|------------------------------------------------------------------------------|
G|-7-7-7-7-7--7-7-10-(10)-10-10-10-10-10-10-7-5-5-5-5-5-5-5-7-(7)-7-7-7-7-7-7-7-|
D|-7-7-7-7-7--7-7-10-(10)-10-10-10-10-10-10-7-5-5-5-5-5-5-5-7-(7)-7-7-7-7-7-7-7-|2x
A|-5-5-5-5-5--5-5--8--(8)--8--8--8--8--8--8-5-3-3-3-3-3-3-3-5-(5)-5-5-5-5-5-5-5-|
E|------------------------------------------------------------------------------|

[INTRO/OUTRO RIFF]
   Gtr I
e|------------------------------------10-13-10-----------------13-------13-15-17p15p13-15-17-20-22|
B|-10----10-8----13----13-10----10-13-----------15----15-13-15------------------------------------|
G|------------10-------------12-------------------------------------------------------------------|
D|------------------------------------------------------------------------------------------------|
A|------------------------------------------------------------------------------------------------|
E|------------------------------------------------------------------------------------------------|
|
 | Gtr II
e|-------------------------------------------------------------------------|
B|-------------------------------------------------------------------------|
G|-7-7-7-7-7-7-7-10-10-10-10-10-10-10-7-5-5-5-5-5-5-5-7-7-7-7-7-7-7-7------|
D|-7-7-7-7-7-7-7-10-10-10-10-10-10-10-7-5-5-5-5-5-5-5-7-7-7-7-7-7-7-5------|Play2x
A|-5-5-5-5-5-5-5--8--8--8--8--8--8--8-5-3-3-3-3-3-3-3-5-5-5-5-5-5-5-5------|
E|-------------------------------------------------------------------------|
IT'S OVER!

Tablature Legend
----------------
 h   - hammer-on
 p   - pull-off
 /\  - slide into or out of (from/to "nowhere")

SECTION NAMES IN ALL CAPS

            
            
Suggest correction
Creating personal tab
Creating personal tab
You can edit any tab online and save it as your Personal.

You can edit, replace or remove any tab part or add personal notes – all changes will be seen only by you.

Personal tabs can be accessed anytime from any device, even offline.
Learn more »
comments
print report bad tab
3 comments total.
-1 reply
christheman 123 Mar 12, 2008 03:41 PM

finally, a correct version that's easy to play.

0 reply
Mistaa Man 120 May 05, 2008 01:41 PM

Love this song. thanks fer posting the tab for it!

+3 reply
fretman5000 51 Jul 28, 2008 01:26 PM

Sweet tab, but if you could, pleeeeeease try to tab the solo for guitar, just for licks. I'd love to learn to play that. Thanks.

guest
You may want to rate the tab now too:
select rating
Wanna post a correction for this tab? Suggest correction