Oops, an error
Loading. Please wait.

Almost Over Bass Tab

version 2
version 2

Whole song

Interactive

1,491 views 1 this week
1 commentread comment
1 2 3 4 5
please rate
add to favorites
launch autoscroll
font size
0
reset
guitar tuner
Autoscroll
slow
fast
+/-
esc
set tempo
stop
Help us to improve Ultimate-Guitar.com Take our survey!
×
Difficulty
advanced
I play in a band to and I'm sure this song is played on a 5stringbass.
This song is not that simple as it likes, cuz it's fast.
contact: stefexelmans@hotmail.com or www.firex-band.be

                      Enjoy the song


G|---------------------------------------------------------------|
D|---------------------------------------------------------------|
A|---------------------------------------------------------------|
E|9-9-9-9-9-9-9-9-9-9-9-9-9-9-9-10-10-12-12-12-12-12-12-12-12-12-|
B|---------------------------------------------------------------|

G|------------------------|
D|------------------------|
A|------------------------|    begin 2 play when the drum comes in
E|10-10-10-10-10-10-10-10-|
B|------------------------|


G|--------------------|
D|--------------------|
A|--------------------|        Bridge
E|--------------------|
B|0------3--5-5---3---|

Chorus:
G|-----------------------------------------------------|
D|-----------------------------------------------------|
A|-----------------------------------------------------|
E|----------------------------------------1-1-1-1-10-0-|
B|3-0-0-0-00000-1-0-0-0-000003-0-0-0-00000-------------|

G|------------------------------------------------------------|
D|------------------------------------------------------------|
A|------------------------------------------------------------|
E|----------------------------------------1-1-1-1-10-0--------|
B|3-0-0-0-00000-1-0-0-0-000003-0-0-0-00000------------0-------|

Verse2:
G|---------------------------------------------------------------|
D|---------------------------------------------------------------|
A|---------------------------------------------------------------|
E|9-9-9-9-9-9-9-9-9-9-9-9-9-9-9-10-10-12-12-12-12-12-12-12-12-12-|
B|---------------------------------------------------------------|

G|------------------------|
D|------------------------|
A|------------------------|
E|10-10-10-10-10-10-10-10-|
B|------------------------|

G|--------------------|
D|--------------------|
A|--------------------|        Bridge
E|--------------------|
B|0------3--5-5---3---|

Play chorus 2x

Brigde:
G|----------------------------------|
D|----------------------------------|
A|00000002-------2-------0--------4-|     (these voices in my mind...)
E|--------4444444-3333333-22222222--|
B|----------------------------------|

G|--------------------|
D|--------------------|
A|--------------------|       bridge2 (2x)
E|--------------------|
B|0------3--5-5---3---|

Play chorus (1x)

G|----------------------------------|
D|----------------------------------|
A|00000002-------2-------0--------4-|     (these voices in my mind...2x)
E|--------4444444-3333333-22222222--|
B|----------------------------------|

Chorus (2x)
Suggest correction
Give kudos to tab author, rate the tab!
1 2 3 4 5
comments
print report bad tab
1 comment total.
0 reply
thephoenixseal@ 378 wrote on March 4 2009, 02:18 pm

Even if you didn't play in a band it's obvious he plays on a 5string bass ,you can see him on the videos ;)

guest
You may want to rate the tab now too:
select rating
Please do not post tabs as comments. Select "correction" instead!