Oops, an error
Loading. Please wait.

Almost Over Bass Tab

version 3
version 3

Whole song

Interactive

732 views 1 this week
no commentswrite comment
1 2 3 4 5
please rate
add to favorites
launch autoscroll
font size
0
reset
guitar tuner
Autoscroll
slow
fast
+/-
esc
set tempo
stop
Help us to improve Ultimate-Guitar.com Take our survey!
×
Enjoy!
Begin to play it when the drums come in:

Verse:
G|---------------------------------------------------------------------------------------|
D|---------------------------------------------------------------------------------------|
A|---------------------------------------------------------------------------------------|
E|7-7-7-7-7-7-7-7-7-7-7-7-7-7-7-10-10-12-12-12-12-12-12-12-12-12-10-10-10-10-10-10-10-10-| 


Bridge:

G|--------------------|
D|--------------------|
A|--------------------|       
E|--------------------|
B|0------3--5-5---3---|

Chorus: (there are two ways of playing this:
G|--------------------------------------------------------|
D|--------------------------------------------------------|
A|-3-----------------------3------------------------------|
E|---0-0-0-0-0-0-6-0-0-0-0---0-0-0-0-0-4-4-4-4-2-2-2-2----|

Or:
G|--------------------------------------------------------|
D|--------------------------------------------------------|
A|-3-----------------------3------------------------------|
E|---0-0-0-0-0-0-6-0-0-0-0---0-0-0-0-0-6-6-6-6-5-5-5-5----|

Bridge:

G|--------------------|
D|--------------------|
A|--------------------|       
E|--------------------|
B|0------3--5-5---3---|

Verse:
G|---------------------------------------------------------------------------------------|
D|---------------------------------------------------------------------------------------|
A|---------------------------------------------------------------------------------------|
E|7-7-7-7-7-7-7-7-7-7-7-7-7-7-7-10-10-12-12-12-12-12-12-12-12-12-10-10-10-10-10-10-10-10-| 

Bridge:

G|--------------------|
D|--------------------|
A|--------------------|       
E|--------------------|
B|0------3--5-5---3---|

Chorus:
G|--------------------------------------------------------|
D|--------------------------------------------------------|
A|-3-----------------------3------------------------------|
E|---0-0-0-0-0-0-6-0-0-0-0---0-0-0-0-0-6-6-6-6-5-5-5-5----|

''My life is one big dream'' part:
G|-----------------------------|
D|-----------------------------|
A|5/7-5-5-5-5/7-5-5-5-5-3-3-5-5|
E|-----------------------------|



Suggest correction
Give kudos to tab author, rate the tab!
1 2 3 4 5
comments
print report bad tab
guest
You may want to rate the tab now too:
select rating
Please do not post tabs as comments. Select "correction" instead!