Oops, an error
Loading. Please wait.

Angels Tab

version 2
version 2

Whole song

Interactive

688 views 1 this week
1 commentread comment
1 2 3 4 5
please rate
add to favorites
launch autoscroll
font size
0
reset
how to read this tab
guitar tuner
Autoscroll
slow
fast
+/-
esc
set tempo
stop
Help us to improve Ultimate-Guitar.com Take our survey!
×
Contributor
Difficulty
novice
________Limp Bizkit
________Angels


My version in standard tuning, as it sounds the same and you don't need to tune your 
guitar one and a half step down !!!


> = slide
h = hammer on


Intro :

e|-----------------|--------------------|-----------------|
b|-----------------|--------------------|-----------------|
G|--10-------------|--------------------|-----------------|
D|------10--10--10-|--7h8--8>10--10>12--|--12--12>10--10--|
A|-----------------|--------------------|-----------------|
E|-----------------|--------------------|-----------------|


Verse :

e|-----------------|--------------------|-----------------------|
b|-----------------|--10----------------|-----------------------|
G|--10--10--10--10-|------10--10--9-----|-----------------------|
D|-----------------|-----------------10-|--7--8--8>10--8--7-----|
A|-----------------|--------------------|--------------------8--|
E|-----------------|--------------------|-----------------------|


Chorus :

e|-----------------|--------------------|----------------|
b|-----------------|--------------------|----------------|
G|-----------------|--------------------|----------------|
D|->10--8--7--8--7-|-----7--8--8>10--8--|--7--8--7-------|
A|-----------------|--8-----------------|-----------8----|
E|-----------------|--------------------|----------------|




  Intro
    x4

         | Lookin' back, the day you left
         | Where you went, I can only guess
         | Where I'll be, some other day
  Verse  | A memory, with all I had to say
    x4   | You gave the love, you had to spare
         | And in return, I built an island there
         | When I dream, I see your face
         | That's when we laugh, somewhere in outer space


  Chorus | The angels over me have seen me cry in agony
         | The angels over me they all believe this side of me

         | Growin' up, without a cause
         | I hear the tune, of my own applause
         | There ain't no right, when there's a wrong
  Verse  | It's my mistake, I knew it all along
    x4   | I've been a fool, what's done is done
         | I can't erase, and I refuse to run
         | I'm beggin' you, to please forgive
         | My heart is true, it's just the way I live

  Chorus | The angels over me have seen me cry in agony
         | The angels over me they all believe this side of me

         | They've seen me cry! (x3)
  Verse  | The angels over me have seen me cry in agony
    x4   | They've see me cry!
(distort)| The angels over me they all believe this side of me
         | They've seen me cry!


END
Suggest correction What's this?
You can suggest a correction to this tab. Community and Mods will review your correction and vote to approve or reject it.
comments
We did not receive enough feedback on this tab! Please rate:
print report bad tab
1 2 3 4 5
1 comment total.
0 reply
00Jules00 66 wrote on September 1 2011, 07:36 am

After playing this one a little bit more, the intro goes like this :

Intro :

e|-----------------|--------------------|-----------------|
b|-----------------|--------------------|-----------------|
G|--10-------------|--------------------|-----------------|
D|------10--10--10-|--7h8-------12--12--|--12--12p10--10--|
A|-----------------|-------10-----------|-----------------|
E|-----------------|--------------------|-----------------|

I want to post or [tab]
guest
You may want to rate the tab now too:
select rating
Please do not post tabs as comments. Select "correction" instead!