Oops, an error
Loading. Please wait.

Autotunage Bass Tab

version 1
version 1

Whole song

Interactive

882 views 6 this week
no commentswrite comment
1 2 3 4 5
excellent!
x 4
add to favorites
launch autoscroll
font size
0
reset
guitar tuner
Autoscroll
slow
fast
+/-
esc
set tempo
stop
Help us to improve Ultimate-Guitar.com Take our survey!
×
Author
Difficulty
Tuning
novice
C G C F A D
Limp Bizkit - Autotunage

Drop-C Tuning

Verses

F-------------------------------------------------------|
C-------------------------------------------------------|
G--66666--66-66-55555--55-55--------------11111--11-11--|
C----------------------------66666--66-66---------------|
       PM  PM PM    PM  PM PM    PM  PM PM    PM  PM PM

Chorus

F----------------------------------------------|
C----------------------------------------------|
G------------------------4-4-xx-4--------------|
C--1-1-xx-1---4-4-xx-4--------------6-6-xx-6---|
Suggest correction
comments
print report bad tab
guest
You may want to rate the tab now too:
select rating
Wanna post a correction for this tab? Suggest correction