Oops, an error
Loading. Please wait.

Autotunage Bass Tab

version 2
version 2

Whole song

Interactive

319 views 1 this week
no commentswrite comment
1 2 3 4 5
1 last vote to show rating
add to favorites
launch autoscroll
font size
0
reset
guitar tuner
Autoscroll
slow
fast
+/-
esc
set tempo
stop
Help us to improve Ultimate-Guitar.com Take our survey!
×
Author
Limp Bizkit - Autotunage

Intro
G|---------------------------|
D|---------------------------|
A|---------------------------|
E|---------------------------|
B|-2-2-x-x-2-----------------|

Verses
G|-----------------------------------------------------------------------|
D|-----------------------------------------------------------------------|
A|-4-4-4-4---44--44--3-3-3-3---33--33------------------------------------|
E|-------------------------------------2-2-2-2---22--22--4-4-4-4--44-44--|
B|-----------------------------------------------------------------------|
at the end of the verse it's  A|-4~--

Chorus
G|----------------------------------------------------------|
D|----------------------------------------------------------|
A|----------------------------------------------------------|
E|------------------------------0-0-x-x-0--0-0-0-0-0-0-0-0--|
B|-2-2-x-x-2--2-2-2-2-2-2-2-2-------------------------------|

G|----------------------------------------------------------|
D|----------------------------------------------------------|
A|----------------------------------------------------------|
E|--2-2-x-x-2--2-2-2-2-2-2-2-2---0-0-x-x-0--0-0-0-0-0-0-0-0-|
B|----------------------------------------------------------|

Post-Corus
G|---------------------------|
D|---------------------------|
A|---------------------------|
E|---------------------------|
B|-2-2-x-x-2-----------------|

Verse
Chorus + Post-Chorus

Break  at first only gutar, then
G|---------------------|
D|---------------------|
A|---------------------|
E|---------------------|
B|-0h2h3-0-2---0-0-2---|

Chorus + Post-Chorus
Suggest correction
Give kudos to tab author, rate the tab!
1 2 3 4 5
comments
print report bad tab
guest
You may want to rate the tab now too:
select rating
Wanna post a correction for this tab? Suggest correction