Oops, an error
Loading. Please wait.

Back O Da Bus Tab

version 1
version 1

Whole song

Interactive

1,094 views 1 this week
1 commentread comment
1 2 3 4 5
x 4
add to favorites
launch autoscroll
font size
0
reset
how to read this tab
guitar tuner
Autoscroll
slow
fast
+/-
esc
set tempo
stop
Help us to improve Ultimate-Guitar.com Take our survey!
×
Author
e|--------------------------------------------------------|
b|--------------------------------------------------------|
g|-------10------------------7----7/9h-10-----------------|
d|----10----------10-------7------------------------------|
a|--8----------10--------5--------------------------------|
e|-----------8--------------------------------------------|

Repeat the whole song

Lyrics:

(Don\\\'t Wanna Go) 

I Don\\\'t wanna do this by myself 
Can\\\'t help to me, this ride won\\\'t last too long for me 
Move so long and the mileage that I gain is to touch you 
And leave myself a name 

Nobody said it was gonna be easy 
Nobody said you would always be lost inside 
Nobody said it was gonna be easy 
Nobody said you would always be lost (lost)  
Suggest correction
comments
print report bad tab
1 comment total.
+1 reply
Daniel C 30 Nov 05, 2001 12:00 AM

the final part is like this:

|---------------|
|---------------|
|----10h12h10---|
|----10h12h10---|
|---------------|
|---------------|

guest
You may want to rate the tab now too:
select rating
Wanna post a correction for this tab? Suggest correction