Oops, an error
Loading. Please wait.

Behind Blue Eyes Tab

version 1
1,056,083 views 1,473 this week
89 commentsread comments
1 2 3 4 5
x 498
add to favorites
launch autoscroll
font size
0
reset
how to read this tab
guitar tuner
Autoscroll
slow
fast
+/-
esc
set tempo
stop
Help us to improve Ultimate-Guitar.com Take our survey!
×
Limp Bizkit - Behind Blue Eyes
Tabbed by: Brandon B.
E-mail: ronicskater06@yahoo.com
Tuning: Standard (EADGBe)


[Intro]

e|---------0---------------0---------------0---------------0-------------|
B|-----------0---------------0---------3-----3---3-----3-----3---3-----3-|
G|-------0-----0---------0-----0-----2---2-----2-----2---2-----2---------|
D|-----2---------0-----0---------0-0---------------0-----------------2---|
A|---2---------------2---------------------------------------------3-----|
E|-0---------------3-----------------------------------------------------|

e|---0---------------0---------------0----------------0-------|
B|-----3---3-----3-----3---3-----0-----0---0------0-----0---0-|
G|-0-----0---------0-----0---------0-----0----------0-----0---|
D|-------------2---------------2----------------2-------------|
A|-----------3---------------0----------------0---------------|
E|------------------------------------------------------------|


[Verse 1] x2

e|---------0---------------0---------------0---------------0-------------|
B|-----------0---------------0---------3-----3---3-----3-----3---3-----3-|
G|-------0-----0---------0-----0-----2---2-----2-----2---2-----2---------|
D|-----2---------0-----0---------0-0---------------0-----------------2---|
A|---2---------------2---------------------------------------------3-----|
E|-0---------------3-----------------------------------------------------|

e|---0---------------0-----000--0-0-----|
B|-----3---3-----3-----3---222--2-2-----|
G|-0-----0---------0-----0-222--2-2-----|
D|-------------2-----------222--2-2-----|
A|-----------3-------------000--0-0-----|
E|--------------------------------------|


[Chorus]

         C D                   G
But my dre-ams they aren't as empty
       C         D        E
As my conscience seems to be
        Bm            C
i have hours, only lonely
            D                      A
My love is vengeance that's never free


[Verse 2] x2

e|---------0---------------0---------------0---------------0-------------|
B|-----------0---------------0---------3-----3---3-----3-----3---3-----3-|
G|-------0-----0---------0-----0-----2---2-----2-----2---2-----2---------|
D|-----2---------0-----0---------0-0---------------0-----------------2---|
A|---2---------------2---------------------------------------------3-----|
E|-0---------------3-----------------------------------------------------|

e|---0---------------0---------------0----------------0-------|
B|-----3---3-----3-----3---3-----0-----0---0------0-----0---0-|
G|-0-----0---------0-----0---------0-----0----------0-----0---|
D|-------------2---------------2----------------2-------------|
A|-----------3---------------0----------------0---------------|
E|------------------------------------------------------------|


[Chorus]

         C D                   G
But my dre-ams they aren't as empty
       C         D        E
As my conscience seems to be
        Bm            C
i have hours, only lonely
            D                      A
My love is vengeance that's never free


[Verse 3] x2

e|---------0---------------0---------------0---------------0-------------|
B|-----------0---------------0---------3-----3---3-----3-----3---3-----3-|
G|-------0-----0---------0-----0-----2---2-----2-----2---2-----2---------|
D|-----2---------0-----0---------0-0---------------0-----------------2---|
A|---2---------------2---------------------------------------------3-----|
E|-0---------------3-----------------------------------------------------|

e|---0---------------0---------------0----------------0-------|
B|-----3---3-----3-----3---3-----0-----0---0------0-----0---0-|
G|-0-----0---------0-----0---------0-----0----------0-----0---|
D|-------------2---------------2----------------2-------------|
A|-----------3---------------0----------------0---------------|
E|------------------------------------------------------------|


[Intro]

e|---------0---------------0---------------0---------------0-------------|
B|-----------0---------------0---------3-----3---3-----3-----3---3-----3-|
G|-------0-----0---------0-----0-----2---2-----2-----2---2-----2---------|
D|-----2---------0-----0---------0-0---------------0-----------------2---|
A|---2---------------2---------------------------------------------3-----|
E|-0---------------3-----------------------------------------------------|

e|---0---------------0---------------0----------------0-------|
B|-----3---3-----3-----3---3-----0-----0---0------0-----0---0-|
G|-0-----0---------0-----0---------0-----0----------0-----0---|
D|-------------2---------------2----------------2-------------|
A|-----------3---------------0----------------0---------------|
E|------------------------------------------------------------|


[Chorus]

         C D                   G
But my dre-ams they aren't as empty
       C         D        E
As my conscience seems to be
        Bm            C
i have hours, only lonely
            D                      A
My love is vengeance that's never free


[Outro]

e|---------0---------------0---------------0---------------0-------------|
B|-----------0---------------0---------3-----3---3-----3-----3---3-----3-|
G|-------0-----0---------0-----0-----2---2-----2-----2---2-----2---------|
D|-----2---------0-----0---------0-0---------------0-----------------2---|
A|---2---------------2---------------------------------------------3-----|
E|-0---------------3-----------------------------------------------------|

e|---0---------------0---------------0----------------0-------|
B|-----3---3-----3-----3---3-----0-----0---0------0-----0---0-|
G|-0-----0---------0-----0---------0-----0----------0-----0---|
D|-------------2---------------2----------------2-------------|
A|-----------3---------------0----------------0---------------|
E|------------------------------------------------------------|
Suggest correction
comments
print report bad tab
89 comments total. Showing first comments.
+4 reply
Tom Martin 135 Oct 10, 2003 12:00 AM

yea, its a good tab, however i think that the chords that you use to play the picking part are these:

|022000| x1
|320030| x1
|000230| x2
|032030| x2
|002200| x2 (or strummed 1st verse)

the same picking aplies though, good tab, keep it up

0 reply
Tom Martin 135 Oct 10, 2003 12:00 AM

lol, actually, the picking pattern isnt exactly right, but its pretty good, and not bad for a first tab

0 reply
disclaimer 10 Oct 10, 2003 12:00 AM

pretty good

guest
You may want to rate the tab now too:
select rating
Wanna post a correction for this tab? Suggest correction