Oops, an error
Loading. Please wait.

Behind Blue Eyes Tab

version 3
328,229 views 561 this week
21 commentsread comments
1 2 3 4 5
x 76
add to favorites
launch autoscroll
font size
0
reset
how to read this tab
guitar tuner
Autoscroll
slow
fast
+/-
esc
set tempo
stop
Help us to improve Ultimate-Guitar.com Take our survey!
×
Author
Song:Behind Blue Eyes
Normal Tuning


[INTRO]

e|-----0----------0-------------0--------------0-------------0------------|
B|----0-0--------3-3--------3-----3-3------3----3-3----3------3---3-------|
G|--------0----------0-----2--2----2-----2--2----2--------0-----0---------|
D|---2-----2---0------0--0-------------0--------------2-------------------|
A|--2---------2--------------------------------------3--------------------|
E|-0---------3------------------------------------------------------------|

e|-------0-----------0--------------0----------------------------------------|
B|----3---3--3----0----0--0------0----0--0-----------------------------------|
G|-----0---0-------2----2---------2----2-------------------------------------|
D|--2-----------2--------------2---------------------------------------------|
A|-3-----------0-------------0-----------------------------------------------|
E|---------------------------------------------------------------------------|


[Verse] 

(Same as Intro)
e|-----0----------0-------------0--------------0-------------0------------|
B|----0-0--------3-3--------3-----3-3------3----3-3----3------3---3-------|
G|--------0----------0-----2--2----2-----2--2----2--------0-----0---------|
D|---2-----2---0------0--0-------------0--------------2-------------------|
A|--2---------2--------------------------------------3--------------------|
E|-0---------3------------------------------------------------------------|

e|-------0-----------0--------------0-------------------------------------|
B|----3---3--3----0----0--0------0----0--0--------------------------------|
G|-----0---0-------2----2---------2----2----------------------------------|
D|--2-----------2--------------2------------------------------------------|
A|-3-----------0-------------0--------------------------------------------|
E|------------------------------------------------------------------------|


[Chorus]

(Just find how the Guitar Goes, Its Easy)
e|-------0-----0-------------------3------------------0--------0------0---|
B|-------1-----3-------------------0------------------1--------3------0---|
G|-------0-----2-------------------0------------------0--------2------1---|
D|-------2-----0-------------------0------------------2--------0------2---|
A|-------3-------------------------2------------------3---------------2---|
E|-------0-------------------------3------------------0---------------0---|
But my dreams,    They arent as empty      As my conscience seems to be

e|--------2-----------0-------------------0----------------------0-------|
B|--------3-----------1-------------------3----------------------0-------|
G|--------4-----------0-------------------2----------------------2-------|
D|--------4-----------2-------------------0----------------------2-------|
A|--------2-----------3------------------------------------------0-------|
E|--------2-----------0--------------------------------------------------|
I Have hours, Only Lonely, My Love Is Vengaence, That is never free...

[Bridge]

(Same as intro)
e|-----0----------0-------------0--------------0-------------0------------|
B|----0-0--------3-3--------3-----3-3------3----3-3----3------3---3-------|
G|--------0----------0-----2--2----2-----2--2----2--------0-----0---------|
D|---2-----2---0------0--0-------------0--------------2-------------------|
A|--2---------2--------------------------------------3--------------------|
E|-0---------3------------------------------------------------------------|

e|-------0-----------0--------------0----------------------------------------|
B|----3---3--3----0----0--0------0----0--0-----------------------------------|
G|-----0---0-------2----2---------2----2-------------------------------------|
D|--2-----------2--------------2---------------------------------------------|
A|-3-----------0-------------0-----------------------------------------------|
E|---------------------------------------------------------------------------|

And thats all!!! Have fun......
Maximus Jozue
Suggest correction
comments
print report bad tab
21 comments total. Showing first comments. show 1 bad comment
-1 reply
Blinkrules828 330 Nov 18, 2003 12:00 AM

i think that the emaj chord in the chorues should be emin.. but hey thats must my opinion.. anyway good job

-2 reply
h0ffm4n13 10 Nov 30, 2003 12:00 AM

I don't know why Limp Bizkit covered this, the who are a much better band. But good job on the tab, I couldn't find any mistakes.

guest
You may want to rate the tab now too:
select rating
Wanna post a correction for this tab? Suggest correction