Oops, an error
Loading. Please wait.

Behind Blue Eyes Tab

version 7
4,629 views 18 this week
no commentswrite comment
1 2 3 4 5
x 4
add to favorites
launch autoscroll
font size
0
reset
how to read this tab
guitar tuner
×
Best way to learn
"Behind Blue Eyes"
Autoscroll
slow
fast
+/-
esc
set tempo
stop
Author
Difficulty
Tuning
  follow
novice
E A D G B E
-----------------------------------------------------------------------
                        Limp Bizkit - Behind Blue Eyes
-----------------------------------------------------------------------

intro/verse 1
e----------0---------------0--------------0---------------0--------------|
B-------0----0---0------3----3---3-----3-----3---3-----3-----3---3-----3-|
G-----0---0----0------0---0----0-----2---2-----2-----2---2-----2------0--|
D----------------------------------0---------------0---------------------|
A------------------------------------------------------------------3-----|
E-0---------------3------------------------------------------------------|


e---0---------------0---------------0----------------0-------|
B-----3---3-----3-----3---3-----0-----0---0------0-----0---0-|
G-0-----0------0--0-----0------2--2-----2-------2--2-----2---|
D------------------------------------------------------------|
A-----------3---------------0----------------0---------------|
E------------------------------------------------------------|

Verse 2
e----------0---------------0--------------0---------------0--------------|
B-------0----0---0------3----3---3-----3-----3---3-----3-----3---3-----3-|
G-----0---0----0------0---0----0-----2---2-----2-----2---2-----2------0--|
D----------------------------------0---------------0---------------------|
A------------------------------------------------------------------3-----|
E-0---------------3------------------------------------------------------|


e---0---------------0------------000--0--0----------|
B-----3---3-----3-----3---3------222--2--2----------|
G-0-----0------0--0-----0--------222--2--2----------|
D--------------------------------222--2--2----------|
A-----------3--------------------000--0--0----------|
E--------------------------------000--0--0----------|

Chorus:
         C D                   G
But my dre-ams they aren't as empty

       C         D        Em
As my conscience seems to be

        Bm            C
I have hours, only lonely

            D                      A
My love is vengeance that's never free

Song order:
Intro      x1
Verse 2    x2
Chorus     x1
Verse 1    x2
Chorus     x1
Verse 1    x4
Chorus     x1
Verse 2    x1
Suggest correction
comments
print report bad tab
guest
You may want to rate the tab now too:
select rating
Wanna post a correction for this tab? Suggest correction