Oops, an error
Loading. Please wait.

Boiler Tab

version 1
version 1

Whole song

Interactive

34,617 views 12 this week
6 commentsread comments
1 2 3 4 5
x 12
add to favorites
launch autoscroll
font size
0
reset
how to read this tab
guitar tuner
Autoscroll
slow
fast
+/-
esc
set tempo
stop
Help us to improve Ultimate-Guitar.com Take our survey!
×
LIMP BIZKIT
                         BOILER
                     CORRECT VERSION
                  STRAIGHT FROM THE BOOK


by Slipknot #7


[Intro]

w/E-bow
e|-------------------------|--------------------------|
B|-------------------------|--------------------------|
G|-------------------------|--------------------------|
D|-------------------------|--------------------------|
A|-------------------------|--------------------------|
E|-0-----------------------|----8--------------10-----|


Band Enters/CHORUS
w/dist

hold-----------------------|
e|---------0-----------0-------------------------------|
B|-----------------------------------------------------|
G|----------------------------------------9-9-9b---9---|
D|-----------------------------------------------------|
A|-----7-----7-----7------7---------------7-7-7b---7---|
E|--0-----------0--------------------------------------|


hold------------------------|
e|---------0-----------0-------------------------------|
B|-----------------------------------------------------|
G|----------------------------------------9-9-9b---9---|
D|-----------------------------------------------------|
A|-----7-----7-----7------7---------------7-7-7b---7---|
E|--0-----------0--------------------------------------|


hold------------------------|
e|---------0-----------0-------------------------------|
B|-----------------------------------------------------|
G|----------------------------------------9-9-9b---9---|
D|-----------------------------------------------------|
A|-----7-----7-----7------7---------------7-7-7b---7---|
E|--8-----------8--------------------------------------|


hold------------------------|
e|---------0-----------0-------------------------------|
B|-----------------------------------------------------|
G|----------------------------------------9-9-9b---9---|
D|-----------------------------------------------------|
A|-----7-----7-----7------7---------------7-7-7b---7---|
E|--10----------10-------------------------------------|


[Verse]

Clean 

hold------------------------|             harm
e|-------------0---------------------------------------|
B|-----------------------------------------------------|
G|------------------------------------------5----------|
D|------------------------------------------5----------|
A|-------7----------7----------------------------------|
E|--0--------------------------------------------------|


hold------------------------|             harm
e|-------------0---------------------------------------|
B|-----------------------------------------------------|
G|------------------------------------------7----------|
D|------------------------------------------7----------|
A|-------7----------7----------------------------------|
E|--0--------------------------------------------------|


hold------------------------|             harm
e|-------------0---------------------------------------|
B|-----------------------------------------------------|
G|------------------------------------------12---------|
D|------------------------------------------12---------|
A|-------7----------7----------------------------------|
E|--8--------------------------------------------------|


hold------------------------|             harm
e|-------------0---------------------------------------|
B|-----------------------------------------------------|
G|------------------------------------------12---------|
D|------------------------------------------12---------|
A|-------7----------7----------------------------------|
E|--10-------------------------------------------------|


hold------------------------|             harm
e|-------------0---------------------------------------|
B|-----------------------------------------------------|
G|------------------------------------------5----------|
D|------------------------------------------5----------|
A|-------7----------7----------------------------------|
E|--0--------------------------------------------------|


hold------------------------|             harm
e|-------------0---------------------------------------|
B|-----------------------------------------------------|
G|------------------------------------------7----------|
D|------------------------------------------7----------|
A|-------7----------7----------------------------------|
E|--0--------------------------------------------------|


hold-------------|       harm
e|---------0-------------------------------------------|
B|-----------------------------------------------------|
G|------------------------12---------------------------|
D|------------------------12---------------------------|
A|-----7------7----------------------------------------|
E|--8--------------------------------------------------|


hold-------------|       harm------------------------|
e|---------0-------------------------------------------|
B|-------------------------------------12-12-12-12-12--|
G|------------------------12----12--12-12-12-12-12-12--|
D|------------------------12----12--12-----------------|
A|-----7------7----------------------------------------|
E|--10-------------------------------------------------|


[Bridge]
Bend Slow

Volume Knob swell
e|---------------------------------------------------|
B|---------------------------------------------------|
G|---------------------------------------------------|
D|---------------------------------------------------|
A|---7b---------------------------------(7)----------|
E|---------------------------------------------------|


e|---------------------------------------------------|
B|---------------------------------------------------|
G|---------------------------------------------------|
D|---------------------------------------------------|
A|---7b---------------------------------(7)----------|
E|---------------------------------------------------|


e|---------------------------------------------------|
B|---------------------------------------------------|
G|--7------------------------------------------------|
D|---------------------------------------------------|
A|--5------------------------------------------------|
E|---------------------------------------------------|


This is as far as the tab book shows you for the bridge so I suggest messing around with 
the whammy bar will give you a good enough sound.


[Outro]

harm throughout
e|-----------------------------------12-----------12-----|
B|------------------------------7-------------7----------|
G|----------------------------------------------------7--|
D|-------------------------------------------------------|
A|-------------------------------------------------------|
E|-------------------------------------------------------|


e|--12----------------------|-----------------------------|
B|------5---5--------5---5--|---12-12----7---12--12--7--7-|
G|--------------5------5----|-----------------------------|
D|--------------------------|-----------------------------|
A|--------------------------|-----------------------------|
E|--------------------------|-----------------------------|


e|-----5-------------5----5--|------12------------12------|
B|--5--------5---5-----------|--12------12----12-----12---|
G|---------------------------|----------------------------|
D|---------------------------|----------------------------|
A|---------------------------|----------------------------|
E|---------------------------|----------------------------|


e|--------------------------|-----------------------------|
B|-------7------------7-----|---------7----------7--------|
G|--5-------7-----------7---|-----------7----------7------|
D|-------------7--12--------|--7--12------7--12-----------|
A|--------------------------|-----------------------------|
E|--------------------------|-----------------------------|


So There You Go
Shame about Wes leaving Limp Bizkit but anyway this is a great song.



************************************

| (n)  Ghost note
| b    Bend

************************************
Suggest correction
comments
print report bad tab
6 comments total. Showing first comments.
+1 reply
Slipknot #7 0 Mar 03, 2002 12:00 AM

The tuning is C#F#BEG#C#

0 reply
Slipknot #7 0 Mar 05, 2002 12:00 AM

oops just noticed down the side its ment to say C#F#BEG#C#

0 reply
dominikzal 170 Mar 23, 2002 12:00 AM

your right about the bridge bit you do use the whammy bar the get the right sound, you can see wes doing this in the vid for boiler

guest
You may want to rate the tab now too:
select rating
Wanna post a correction for this tab? Suggest correction