Oops, an error
Loading. Please wait.

Boiler Tab

version 2
version 2

Whole song

Interactive

5,543 views 6 this week
1 commentread comment
1 2 3 4 5
accurate
x 3
add to favorites
launch autoscroll
font size
0
reset
how to read this tab
guitar tuner
Autoscroll
slow
fast
+/-
esc
set tempo
stop
Help us to improve Ultimate-Guitar.com Take our survey!
×
Author
sad_air 346
Limp Bizkit - Boiler

Tuning - B,F#,B,E,G#,C#

^ = wiggle whammy bar
~ = feedback
b = bend
x = muted note
> = push whammy bar down for higher noise (tighten strings)
< = push whammy bar down for lower noise (loosen strings)
z = Pick Scratch down string

 Intro (with distortion and volume swell
|-----------------|--------------|-------------|----------|
|--------------6--|--------------|-------------|----------|
|--7--9--11----5--|--7--11----5--|--7--11--17--|--7----9--|
|--x--x--x-----x--|--x--x-----x--|--x--x---x---|--x----x--|
|--5--7--9-----3--|--5--9-----3--|--5--9---15--|--5----7--|
|-----------------|--------------|-------------|----------|


 Chorus
|--------------------------|    |--------------------------|--------------------------|
|--------------------------|    |--------------------------|--------------------------|
|--9-99-9-99b-99--9-9b-9b--| x2 |--5-55-5-55b-55--5-5b-5b--|--7-77-7-77b-77--7-7b-7b--|
|--9-99-9-9x--99--9-x--x---|    |--5-55-5-5x--55--5-x--x---|--7-77-7-7x--77--7-x--x---|
|--7-77-7-77b-77--7-7b-7b--|    |--3-33-3-33b-33--3-3b-3b--|--5-55-5-55b-55--5-5b-5b--|
|--------------------------|    |--------------------------|--------------------------|


 Verse (w/ Delay) 
|-------------------------------------------------------|
|-------------------------------------------------------|
|------9-9--------9-9--9-7---------9-9--7-------9-9--7--|
|----------7--------------------------------------------|
|--7-7--------5-5----5---------------------5-5----------|
|--------------------------10-10------------------------|


 Bridge 
|-------------------------------------------|
|-------------------------------------------|
|-------------------------------------------|
|------------------------------9----~~~~~---|
|--0---~~~~~~~~~~~~~~----------7-~~~~~~~~~--|
|--0-----~~~~~~~----------------------------|

|--------------------------------------------|
|--------------------------------------------|
|--------------------------------------------|
|---------------------------------9----------|
|--~~~~~~~-x---------~~~~~~~------7-~~~~~~~--|
|----------10-----~~~~--------10-------------|
           ^                  ^
|--------------------------------|
|--------------------------------|
|----------------------9---------|
|----------------------x---------|
|------~~~~-----~~~~~--7~~~~~~~--|
|--10-~~----10-------------------|
   ^        ^

 Outro/Last Chorus
|---------------------------------------------|
|---------------------------------------------|
|----9-----9b-9<<->>>b-----9-----9-9<--9b-9b--|
|-------------x--------------------x---x--x---|
|--7---7-7----7<<->>>b---7---7-7---7<--7b-7b--|
|---------------------------------------------|
              ^ ^  ^^              ^

|------------------------------------------------------------------|
|------------------------------------------------------------------|
|----5---5---5----5>-<<<<>--5b-5b-----7-----7---7b-7b>><->b-7b-7b--|
|--------x--------x---------x--x----------------x--x--------x--x---|
|--3---3-3-3---3--3>-<<<<>--3b-3b---5---5-5---5-5--5b>><->b-5b-5---|
|------------------------------------------------------------------|
                  ^    ^^                       ^  ^  ^  ^     ^

|-------------------------------------------------------|
|-------------------------------------------------------|
|----9-----9---9<<<<<<<-----9---9---9---9b<<<----9b-9b--|
|--------------x----------------x-------------------x---|
|--7---7-7---7-7<<<<<<<---7---7-7-7---7--------7----7b--|
|-------------------------------------------------------|
               ^ ^   ^                  ^           ^

|---------------------------------------------------------------------|
|---------------------------------------------------------------------|
|----5------5b---5<<<<<<--5b-5---7----7-----7---7<<<<<<<----7---7b----|
|----------------x--------x--x---x--------------x------------------0--|
|--3---3b-3---3--3<<<<<<--3b-3---5--5---5-5---5-5<<<<<<<--5---5----0--|
|-----------------zzz--------------------------------zz------------0--|
                 ^   ^       ^          ^            ^^^        ^
Suggest correction
What's this?
You can suggest a correction to this tab. Community and Mods will review your correction and vote to approve or reject it.
comments
We did not receive enough feedback on this tab! Please rate:
print report bad tab
1 2 3 4 5
1 comment total.
-1 reply
Sotko 11 wrote on April 4 2002, 12:00 am

Enjoy maybe the last song of LB with guitart noizes Fuck LB

guest
You may want to rate the tab now too:
select rating
Please do not post tabs as comments. Select "correction" instead!