Oops, an error
Loading. Please wait.

Boiler Bass Tab

version 3
version 3

Whole song

Interactive

5,065 views 6 this week
no commentswrite comment
1 2 3 4 5
x 3
add to favorites
launch autoscroll
font size
0
reset
guitar tuner
Autoscroll
slow
fast
+/-
esc
set tempo
stop
Help us to improve Ultimate-Guitar.com Take our survey!
×
Difficulty
intermediate
-------------------------------------------------------------------------------
			     Boiler - Limp Bizkit
-------------------------------------------------------------------------------

From The Choclate Starfish and the Hot Dog Flavoured Water

Tuning: C# F# B E

Chorus

E |---9----9-----9b9b----9----9-----9b9b----5----5-----5b5b----7----7-----7b7b|
B |--9-9--9-9-----------9-9--9-9-----------5-5--5-5-----------7-7--7-7--------|
F#|---------------------------------------3----3------3------5----5----5------|
C#|-0----0------0------0----0------0------------------------------------------|


Verse

E |-----------------------11-11-12--------12------------12-14----12-----------|
B |--------------------9----------------------------12--------------14--------|
F#|---------7-----7-7---------------10----------10----------------------------|
C#|-0-------------------------------------------------------------------------|

E |---------------------------------------------------------------------------|
B |-----10----------10--------12----12-12-12-14-12----------------------------|
F#|--------------------------------------------------14\----------------------|
C#|-8--------------------10---------------------------------------------------|

Bridge

E |---------------------------------------------------------------------------|
B |-------------------------------------------------------10--------10----------|
F#|--5h7--10p7--5h7--10p7--5h7--10p7--5h7--10p7-------10--------10--------------|
C#|-------------------------------------------------8---------8----------------|

                                                Only play this bit the first two times
E |--------------------------------------------|------------------------------|
B |-------10--------10----------12--------12---|------12--12------------------|
F#|---10--------10----------12---------12------|---12--------12---------------|
C#|-8---------8----------10---------10---------|10-------------10-------------|

Song Structure


Bass Comes In At 0:34

Chorus x1
Verse  x2
Chorus x1
Verse  x2
Chorus x2
Bridge x3
Chorus x4
Verse  x1

The timing can be quite hard to work out so listen very closely to the song or use the power tab.

Enjoy! :)
 
| b  bend string
| /  slide up
| \  slide down
| h  hammer-on
| p  pull-off
| ~  vibrato
| +  harmonic
| x  Mute note
===============================================================================
Suggest correction
Give kudos to tab author, rate the tab!
1 2 3 4 5
comments
print report bad tab
guest
You may want to rate the tab now too:
select rating
Wanna post a correction for this tab? Suggest correction