Oops, an error
Loading. Please wait.

Boiler Bass Tab

version 4
version 4

Whole song

Interactive

5,280 views 6 this week
no commentswrite comment
1 2 3 4 5
excellent!
x 4
add to favorites
launch autoscroll
font size
0
reset
guitar tuner
Tab Pro tools
  • play this tab
  • loop segment
  • change instrument
  • show fretboard
  • metronome
×
Best way to learn
"Boiler"
Autoscroll
slow
fast
+/-
esc
set tempo
stop
Contributor
----------------------------------------------------------------------------
			     Boiler - Limp Bizkit
----------------------------------------------------------------------------

Tabbed By : Mkbass74

I play all Limp Bizkit songs in drop-D form but down a half step unlike most people, so 
it is the way i play it, enjoy.

Tuning: (low to high) C#, G#, C#, A#


Guitar Intro {0:00}


Band Intro (Chorus) {0:34}:      x2
G||---7------7-------------7b-7--||
D||o----------------------------o||
A||o----------------------------o||
E||-0----0-0----0--------0-------||
                                                            
G|--7------7-------------7b-7-|--7------7-------------7b-7--|
D|----------------------------|----------------------------o|
A|----------------------------|----------------------------o|
E|8----8-8----8--------8------|10--10-10--10--------10------|


Verse 1 {0:52}:
G||----------------------------|-----------------------------|
D||o------12----------14--14h15|-------------15-15/17--15-12-|
A||o--------------12-----------|-----------15----------------|
E||-12-------------------------|15-------15------------------|

                                                            x2
G|----------------------------|-----------------------------||
D|----------------------------|----------------------------o||
A|13~--------------13---------|15---------15-15-15/17-15-12o||
E|----------------------------|-----------------------------||


Chorus {1:26}:                   x2
G||---7------7-------------7b-7--||
D||o----------------------------o||
A||o----------------------------o||
E||-0----0-0----0--------0-------||

                                                            
G|--7------7-------------7b-7-|--7------7-------------7b-7-|
D|----------------------------|----------------------------|
A|----------------------------|----------------------------|
E|8----8-8----8--------8------|10--10-10--10--------10-----|


Verse 2 {1:44}:
G||-----------------------------|-----------------------------|
D||o-------12----------14--14h15|-------------15-15/17--15-12-|
A||o---------------12-----------|-----------15----------------|
E||--12-------------------------|15-------15------------------|

                                                             x2
G|----------------------------|------------------------------||
D|----------------------------|-----------------------------o||
A|13~--------------13---------|15---------15-15-15/17-15-12-o||
E|----------------------------|------------------------------||


Chorus 2 {2:18}:                 x2
G||---7------7-------------7b-7--||
D||o----------------------------o||
A||o----------------------------o||
E||-0----0-0----0--------0-------||

                                                            x2
G|--7------7-------------7b-7-|--7------7-------------7b-7--||
D|----------------------------|----------------------------o||
A|----------------------------|----------------------------o||
E|8----8-8----8--------8------|10--10-10--10--------10------||


Bridge {2:52}:
G|----------------------------|-----------------------------|
D|----------------------------|-----------------------------|
A|----------------------------|-----------------------------|
E|0---------------------------|(0)--------------------------|

                                 x2
G||------------------------------||------3------3------3-----3--|
D||o----------------------------o||---3------3------3-----3-----|
A||o3h5-5----3----3h5-5--7p3----o||1------1------1------1-------|
E||------------------------------||-----------------------------|

                               x2
G|------5------5------5------5-||
D|---5------5------5------5---o||
A|3------3------3------3------o||
E|-----------------------------||

                                 x2
G||------------------------------||------3------3------3-----3--|
D||o----------------------------o||---3------3------3-----3-----|
A||o3h5-5----3----3h5-5--7p3----o||1------1------1------1-------|
E||------------------------------||-----------------------------|


G|------5------5--------------|
D|---5------5-----------------|
A|3------3------3-------------|
E|----------------------------|


Chorus 3 {3:51}:                 x2
G||---7------7-------------7b-7--||
D||o----------------------------o||
A||o----------------------------o||
E||-0----0-0----0--------0-------||

                                                            x4
G|--7------7-------------7b-7-|--7------7-------------7b-7--||
D|----------------------------|----------------------------o||
A|----------------------------|----------------------------o||
E|8----8-8----8--------8------|10--10-10--10--------10------||


Outro (Verse) {5:00}:
G|----------------------------|-----------------------------|
D|-------12----------14--14h15|-------------15-15h17--15-12-|
A|---------------12-----------|-----------15----------------|
E|-12-------------------------|15-------15------------------|


G|----------------------------|-----------------------------|
D|----------------------------|-----------------------------|
A|13~--------------13---------|15---------15-15-15/17-15-12-|
E|----------------------------|-----------------------------|

G|----------------------------|
D|----------------------------|
A|----------------------------|
E|0~--------------------------|



So there you go, leave comments if you have any and i hope this is useful to you.

| b  bend
| /  slide up
| \  slide down
| h  hammer-on
| p  pull-off
| ~  vibrato
| +  harmonic
| x  Mute note
============================================================================
comments
print report bad tab
I want to post or [tab]
guest
You may want to rate the tab now too:
select rating
Please do not post tabs as comments. Select "correction" instead!