Oops, an error
Loading. Please wait.

Boiler tab

version 5
version 5

Whole song

Interactive

185 views 3 this week
no commentswrite comment
1 2 3 4 5
2 more votes to show rating
add to favorites
×
Save as Personal and add changes to this tab that will be seen only by you. Learn more ›
×
You can save this tab as Personal to edit and correct it or add notes. All changes will be seen only by you. Learn more »
launch autoscroll
font size
0
reset
how to read this tab
guitar tuner
edit
Autoscroll
slow
fast
+/-
esc
set tempo
stop
Boiler - Limp Bizkit
Tuning C# F# B E G# C#
Bang your Guitar for A lot of Feedback on the intro with
Wes sliding his fingers up & down the fret board
Let Ring the open High String and the same for he other chords.

 |------||---------------------------------------|
||---0-------0-----------------------------------|
||---0-------0-----------------------------------|
||-9---9---9---9---9---9-9-9br9------------------|
||-----------------------------------------------|
||-7---7---7---7---7---7-7-7br7------------------|
||---------------------------------------Repeat--| x2

||----0-----0---------------------------|
||----0-----0---------------------------|
||--5--5---5-5--5--5-5-5br-5------------|
||--------------------------------------|
||--3--3---3-3--3--3-3-3br-3------------|
||--------------------------------------|
I have seen other guitarist try to play it the same way as No sex but
Wes plays it this way on the video

||---0--------0-------------------------|
||---0--------0-------------------------|
||-9---9---9---9---9---9-9-9br9---------|
||--------------------------------------|This is not the way Wes plays on the video
||-7---7---7---7---7---7-7-7br7---------|But others prefer to play it this way
||-8---8---8---8---8---8-8-8br8---------|

||----0------0--------------------------|
||----0------0--------------------------|
||--7--7---7---7-7--7-7-7br-7-----------|
||--------------------------------------|
||--5--5---5---5-5--5-5-5br-5-----------|
||--------------------------------------|
Verse
||-----0---(12)-----0---------0---------0----- (12-| Harmonics
||---------------------(12)------------------------| [9]Ghost notes play either
||----------------------------------------(12------|
||-------------------------------(12)--------------|
||--7------------5--------------------5------------|
||-------------------------8-----------------------|
Hold for long time
||-------------------------------|
||-------------------------------|
||-------------------------------|
||--2----------------------------|
||--2----------------------------|
||--0----------------------------|
Bang your guitar Pick ups to get alot of feedback
Hold these notes and bang for distortion feedback
||-------------------------|
||-------------------------|
||-9~---9~---5~--7~--------|
||-------------------------|
||-7~---7~---3~--5~--------|
||-------------------------|Repeat then before the heavy part comes
in repeat the fiff whilst using the Whammy bar.
Then when Fred screaming around the end of the song play the riff
and before you have to bend the octaves strike the whammy bar back
and fourth.
||-12-7--------12-12-------------| The Outro is a load of harmonics being strummed
||-12-7--12----12-12----12-------| I think it is this.
||----7--12-12-12-12-12-12-------| This is also played every time the verse goes
||-------12-12----12-12----------| into the heavy Chorus Part
||----------12-------------------|
||-------------------------------|
Suggest correction
Creating personal tab
Creating personal tab
You can edit any tab online and save it as your Personal.

You can edit, replace or remove any tab part or add personal notes – all changes will be seen only by you.

Personal tabs can be accessed anytime from any device, even offline.
Learn more »
Give kudos to tab author, rate the tab!
1 2 3 4 5
comments
print report bad tab
guest
You may want to rate the tab now too:
select rating
Wanna post a correction for this tab? Suggest correction