Oops, an error
Loading. Please wait.

Break Stuff Tab

version 1
113,177 views 21 this week
13 commentsread comments
1 2 3 4 5
x 19
add to favorites
launch autoscroll
font size
0
reset
how to read this tab
guitar tuner
backing track
0:00
0:00
×
Best way to learn
"Break Stuff"
Autoscroll
slow
fast
+/-
esc
set tempo
stop
[Verse]
E|-----------------------------------------------------|
B|-----------------------------------------------------|
G|-----------------------------------------------------|
D|-----------------------------------------------------|
A|---2-----3-------------------------------------------|
E|---2-----3-------------------------------------------|
B|---0-----1-----x12-----------------------------------|

[Chorus]
                  PM------
E|-----------------------------------------------------|
B|-----------------------------------------------------|
G|-----------------------------------------------------|
D|-----------------------------------------------------|
A|---2--2--2-------2-2-2----2--2------2----3-----------|
E|---2--2--2-------2-2-2----2--2------2----3-----------|
B|---0--0--0-------0-0-0----0--0------0----1-----------|

[Verse]
E|-----------------------------------------------------|
B|-----------------------------------------------------|
G|-----------------------------------------------------|
D|-----------------------------------------------------|
A|---2-----3-------------------------------------------|
E|---2-----3-------------------------------------------|
B|---0-----1-----x12-----------------------------------|


(NOW IT'S THE "I FEEL LIKE SHIT" PART)
   PM------------------
E|-----------------------------------------------------|
B|-----------------------------------------------------|
G|-----------------------------------------------------|
D|-----------------------------------------------------|
A|--2-2----2-2---2-2--2-2---2--------------------------|
E|--2-2----2-2---2-2--2-2---2--------------------------|
B|--0-0----0-0---0-0--0-0---0--------------------------|


************************************

| x   Dead note
| PM  Palm mute

************************************
Suggest correction
comments
print report bad tab
13 comments total. Showing first comments. show 1 bad comment
-1 reply
Sotko 10 Jan 09, 2002 12:00 AM

i like tabbed songs for which you don't have to tune down or up (i hate it) your fuckin' guitar

+5 reply
Lumb 10 May 09, 2002 12:00 AM

The reason that there is a B at the bottom of the tab line is because it's a 7 STRING GUITAR - you know, like korn use. It uses an extra string which is lower than the others. TWATS

guest
You may want to rate the tab now too:
select rating
Wanna post a correction for this tab? Suggest correction