Oops, an error
Loading. Please wait.

Break Stuff Tab

version 2
117,839 views 210 this week
9 commentsread comments
1 2 3 4 5
accurate
x 27
add to favorites
launch autoscroll
font size
0
reset
how to read this tab
guitar tuner
Autoscroll
slow
fast
+/-
esc
set tempo
stop
Help us to improve Ultimate-Guitar.com Take our survey!
×
Tuning
C# G# E B F# C#
Song: Break Stuff
Artist: Limp Bizkit
Tabbed by: Nick Chavez

This song is pretty easy to learn if you get the right tab of it.  I've found out that 
this is the actual way you play the song

Real way: First off, you have got to tune down 1 and 1/2 steps.  The way you do that is 
to lay your fingers above the 3rd fret, and then just tune it normally (E,A,D,G,B,e).
So now when you take your fingers off, it is tuned to C#,F#,B,E,G#,c#.  Now that you are 
in tune, time to jam.


[Chorus]

c#|---------|
G#|---------|
E |---------|
B |--4------|
F#|--4----3-|
C#|--2------|

Repeat as needed

[Bridge 1]

c#|-----------------------------------------------|
G#|-----------------------------------------------|
E |-----------------------------------------------|
B |----------xx-x---------xx-x---------xx-x-------|
F#|--4---4^--xx-x-4---4^--xx-x-4---4^--xx-x-4/5/4-|
C#|--2^--2^--xx-x-2^--2^--xx-x-2^--2^--xx-x-2/3/2-|

Repeat again and when you get back to here-^,do this

c#|--------|
G#|--------|
E |--------|
B |-4------|
F#|-4----3-|
C#|-2------|


Then do the [Chorus] Repeat as needed.


Then repeat [Bridge 1] twice.


Then you do the following palm muted.

c#|-----|
G#|-----|
E |-----|
B |-----|
F#|-3-4-|
C#|---2-|

Repeat as needed


Then here's the heavy part.

c#|---------------------|
G#|---------------------|
E-|---------------------|
B-|---------------------|
F#|-3------3--------3---|
C#|---2--0---2--2-0---2-|

Repeat as needed.

Then at the end, do the [Chorus] once.

Last, you do [Bridge 1] twice.

Well there you have it hope this has been helpful.  One last note of advice, if you 
listen to the song, you should get the timing perfect.  Oh yeah, the little "^" things mean 
that you bend the note a little.



************************************

| x  Dead note
| /  Slide up

************************************
Suggest correction
What's this?
You can suggest a correction to this tab. Community and Mods will review your correction and vote to approve or reject it.
comments
print report bad tab
9 comments total. Showing first comments.
0 reply
jackkell63 0 wrote on January 14 2002, 12:00 am

HEY MAN GOOD TAB

0 reply
spalding 0 wrote on January 26 2002, 12:00 am

best tab of this song yet

0 reply
toussaia 107 wrote on June 6 2007, 12:14 am

xcellent tab bro

guest
You may want to rate the tab now too:
select rating
Please do not post tabs as comments. Select "correction" instead!