Oops, an error
Loading. Please wait.

Break Stuff Tab

version 7
6,992 views 6 this week
1 commentread comment
1 2 3 4 5
worth learning
x 6
add to favorites
launch autoscroll
font size
0
reset
how to read this tab
guitar tuner
Tab Pro tools
  • play this tab
  • loop segment
  • change instrument
  • show fretboard
  • metronome
×
Best way to learn
"Break Stuff"
Autoscroll
slow
fast
+/-
esc
set tempo
stop
Difficulty
novice
----------------------------------------------------------------------------
                             Break Stuff - Limp Bizkit
----------------------------------------------------------------------------
Tabbed by: Wade Raber
Email: reaper-57@hotmail.com

I looked at all the tabs for this song and they didnt sound right. So i just played 
with my guitar and this is what i got. Let me know what you think.

Tuning: CGCFAD

Key
^ = bend
r = release
^r = bend then release on same note
x = mute string
* = palm mute

Intro/verse:
D|-----------------------------------------|
A|-----------------------------------------|
F|-----------------------------------------|
C|-3--4----3--4----3--4----3--4----3--4----|
G|-3--2----3--2----3--2----3--2----3--2----|
C|-3-------3-------3-------3-------3-------|

D|-----------------------------------------|
A|-----------------------------------------|
F|-----------------------------------------|
C|-3--4----3--4----3--4----3--4----3--4----|
G|-3--2----3--2----3--2----3--2----3--2----|
C|-3-------3-------3-------3-------3-------|

The chorus can be played in 2 ways, like this where you bend the same note...

Chorus
D|------------------------------------------------------|
A|------------------------------------------------------|
F|------------------------------------------------------|
C|-3^---3^r3--xx-x3^---3^r3-xx-x3^---3^r3--xx-x3-4-2----|
G|-3^---3^r3--xx-x3^---3^r3-xx-x3^---3^r3--xx-x3-4-2----|
C|-3^x--3^r3--xx-x3^x--3^r3-xx-x3^x--3^r3--xx-x3-4-2----|
    (on the second ^ , bend then release on same note)

D|------------------------------------------------------|
A|------------------------------------------------------|
F|------------------------------------------------------|
C|-3^---3^r3--xx-x3^---3^r3-xx-x3^---3^r3--xx-x3--4-----|
G|-3^---3^r3--xx-x3^---3^r3-xx-x3^---3^r3--xx-x3--2-----|
C|-3^x--3^r3--xx-x3^x--3^r3-xx-x3^x--3^r3--xx-x3--------|

or like this where you slide from 3 to 4 back to 3. Either way they sound the same.

D|------------------------------------------------------|
A|------------------------------------------------------|
F|------------------------------------------------------|
C|-3^---3/4\3--xx-x3^--3/4\3-xx-x3^--3/4\3--xx-x3-4-2---|
G|-3^---3/4\3--xx-x3^--3/4\3-xx-x3^--3/4\3--xx-x3-4-2---|
C|-3^x--3/4\3--xx-x3^x-3/4\3-xx-x3^x-3/4\3--xx-x3-4-2---|

D|------------------------------------------------------|
A|------------------------------------------------------|
F|------------------------------------------------------|
C|-3^---3/4\3--xx-x3---3/4\3-xx-x3^--3/4\3--xx-x3--4----|
G|-3^---3/4\3--xx-x3---3/4\3-xx-x3^--3/4\3--xx-x3--2----|
C|-3^x--3/4\3--xx-x3^x-3/4\3-xx-x3^x-3/4\3--xx-x3-------|

D|--------------------------------------------------------------|
A|--------------------------------------------------------------|
F|--------------------------------------------------------------|
C|-3--4----3--4----3--4----3--4----3--4----3--4----3--4----3--4-|
G|-3--2----3--2----3--2----3--2----3--2----3--2----3--2----3--2-|
C|-3-------3-------3-------3-------3-------3-------3-------3----|

D|------------------------------------------------------|
A|------------------------------------------------------|
F|------------------------------------------------------|
C|-3^---3^r3--xx-x3^---3^r3-xx-x3^---3^r3--xx-x3-4-2----|
G|-3^---3^r3--xx-x3^---3^r3-xx-x3^---3^r3--xx-x3-4-2----|
C|-3^x--3^r3--xx-x3^x--3^r3-xx-x3^x--3^r3--xx-x3-4-2----|

D|------------------------------------------------------|
A|------------------------------------------------------|
F|------------------------------------------------------|
C|-3^---3^r3--xx-x3^---3^r3-xx-x3^---3^r3--xx-x3-4-2----|
G|-3^---3^r3--xx-x3^---3^r3-xx-x3^---3^r3--xx-x3-4-2----|
C|-3^x--3^r3--xx-x3^x--3^r3-xx-x3^x--3^r3--xx-x3-4-2----|

D|-------------------------------------------------------------------------|
A|-------------------------------------------------------------------------|
F|-------------------------------------------------------------------------|
C|-------------------------------------------------------------------------|
G|-2--2---2-2---2---2-2---2---2-2---2---2-2---2---2-2---2---2-2---2---2-2--|
C|--3--3---3-3---3---3-3---3---3-3---3---3-3---3---3-3---3---3-3---3---3-3-|
pm ** **  ****  **  ****  **  ****  **  ****  **  ****  **  ****  **  ****

D|---------------------------------------------------------|
A|---------------------------------------------------------|
F|---------------------------------------------------------|
C|---------------------------------------------------------|
G|-2---2------2-------2-------2-2-------2-------2-2--------|
C|--3---3------3-0-3-4-3-0-3-4-3-3-0-3-4-3-0-3-4-3-3-0-3-4-|
pm **  **     ** * * *** * * ***** * * *** * * ***** * * *

D|-------------------------------------------------------------------|
A|-------------------------------------------------------------------|
F|-------------------------------------------------------------------|
C|-------------------------------------------------------------------|
G|-2-------2-2-------2---------2-2-------2-------2-2-------2-------2-|
C|--3-0-3-4-3-3-0-3-4-3-3-0-3-4-3-3-0-3-4-3-0-3-4-3-3-0-3-4-3-0-3-4-3|
pm ** * * ***** * * *** * * * ***** * * *** * * ***** * * *** * * ***

D|-------------------------------------------------------------------|
A|-------------------------------------------------------------------|
F|-------------------------------------------------------------------|
C|-------------------------------------------------------------------|
G|-2-------2-------2-2-------2-------2-2-------2-------2-2-------2---|
C|--3-0-3-4-3-0-3-4-3-3-0-3-4-3-0-3-4-3-3-0-3-4-3-0-3-4-3-3-0-3-4-3--|
pm ** * * *** * * ***** * * *** * * ***** * * *** * * ***** * * ***

D|------------------------------------|
A|------------------------------------|
F|------------------------------------|
C|------------------------------------|
G|-2-2-------2-------2----------------|
C|--3-3-0-3-4-3-0-3-4-3---------------|
pm **** * * *** * * ***

D|-----------------------------------------------------------------|
A|-----------------------------------------------------------------|
F|-----------------------------------------------------------------|
C|-----------------------------------------------------------------|
G|-2-------2-------2-2-------2-------2-2-------2-------2-2---------|
C|--3-0-3-4-3-0-3-4-3-3-0-3-4-3-0-3-4-3-3-0-3-4-3-0-3-4-3-3-0-3-4--|

D|------------------------------------------------------------------|
A|------------------------------------------------------------------|
F|------------------------------------------------------------------|
C|------------------------------------------------------------------|
G|-2-------2-2-------2---------2-2-------2-------2-2-------2--------|
C|--3-0-3-4-3-3-0-3-4-3-3-0-3-4-3-3-0-3-4-3-0-3-4-3-3-0-3-4-3-0-3-4-|

D|----------------------------------------------------------|
A|----------------------------------------------------------|
F|----------------------------------------------------------|
C|----------------------------------------------------------|
G|-2-2-------2---------2-2-------2-------2-2-------2--------|
C|--3-3-0-3-4-3-3-0-3-4-3-3-0-3-4-3-0-3-4-3-3-0-3-4-3-0-3-4-|


D|-----------------------------------|
A|-----------------------------------|
F|-----------------------------------|
C|---------------------3-4-----------|
G|-2-2-------2-------2-3-2-----------|
C|--3-3-0-3-4-3-0-3-4--3-------------|

D|------------------------------------------------------|
A|------------------------------------------------------|
F|------------------------------------------------------|
C|-3^---3^r3--xx-x3^---3^r3-xx-x3^---3^r3--xx-x3-4-2----|
G|-3^---3^r3--xx-x3^---3^r3-xx-x3^---3^r3--xx-x3-4-2----|
C|-3^x--3^r3--xx-x3^x--3^r3-xx-x3^x--3^r3--xx-x3-4-2----|

D|------------------------------------------------------|
A|------------------------------------------------------|
F|------------------------------------------------------|
C|-3^---3^r3--xx-x3^---3^r3-xx-x3^---3^r3--xx-x3-4-2----|
G|-3^---3^r3--xx-x3^---3^r3-xx-x3^---3^r3--xx-x3-4-2----|
C|-3^x--3^r3--xx-x3^x--3^r3-xx-x3^x--3^r3--xx-x3-4-2----|
comments
print report bad tab
1 comment total.
-1 reply
break_stuff wrote on September 15 2007, 01:25 pm

Move everything down a fret

I want to post or [tab]
guest
You may want to rate the tab now too:
select rating
Please do not post tabs as comments. Select "correction" instead!