Oops, an error
Loading. Please wait.
We have an official Break Stuff tab made by UG professional guitarists. Check out the tab »
×
7,102 views 99 this week
4 commentsread comments
1 2 3 4 5
x 9
add to favorites
×
Save as Personal and add changes to this tab that will be seen only by you. Learn more ›
×
You can save this tab as Personal to edit and correct it or add notes. All changes will be seen only by you. Learn more »
launch autoscroll
font size
0
reset
how to read this tab
guitar tuner
backing track
0:00
0:00
edit
Autoscroll
slow
fast
+/-
esc
set tempo
stop
Band:Limp Bizkit
Song:Break Stuff
this is the correct way to play Break Stuff.(tuning:C# F# B E G# c#)
(*i corrected my tab from the Significant Other tab book so this tab is 110%correct.*)

Intro & Verse:
C#|--------------------|
F#|--------------------|
B |--------------------|
E |-------4------------|
G#|-------4------3-----|
C#|-----0h2------2-----|

1st Chorus:

C#|-------------------------------------------------------------------|
F#|-------------------------------------------------------------------|
B |-------------------------------------------------------------------|
E |-----4/-(4)--4/-(4)--x-x--x--4/-(4)--4/-(4)--x-x--x--4/-(4)--4/-(4)|
G#|-----4/-(4)--4/-(4)--x-x--x--4/-(4)--4/-(4)--x-x--x--4/-(4)--4/-(4)|
C#|-----2/-(2)--2/-(2)--x-x--x--2/-(2)--2/-(2)--x-x--x--2/-(2)--2/-(2)|
(the numbers between parentheses u dont have to play)
C#|----------------------  ----------------------|
F#|----------------------  ----------------------|
B |----------------------  ----------------------|
E |-----x-x--x----4------or---4-3----------------|
G#|-----x-x--x----4---3--  ---4-3----------------|
C#|-----x-x--x--0h2---2--  ---2-2----------------|

2ond Chorus:

C#|-------------------------------------------------------------------|
F#|-------------------------------------------------------------------|
B |-------------------------------------------------------------------|
E |-----4/-(4)--4/-(4)--x-x--x--4/-(4)--4/-(4)--x-x--x--4/-(4)--4/-(4)|
G#|-----4/-(4)--4/-(4)--x-x--x--4/-(4)--4/-(4)--x-x--x--4/-(4)--4/-(4)|
C#|-----2/-(2)--2/-(2)--x-x--x--2/-(2)--2/-(2)--x-x--x--2/-(2)--2/-(2)|

C#|----------------------|
F#|----------------------|
B |----------------------|
E |-----x-x--x--4-4/--3--|
G#|-----x-x--x--4-4/--3--|
C#|-----x-x--x--2-2/--1--|
(i dont hear this part in the song but my friend told me there's this part missing)
C#|-------------------------------------------------------------------|
F#|-------------------------------------------------------------------|
B |-------------------------------------------------------------------|
E |-----4/-(4)--4/-(4)--x-x--x--4/-(4)--4/-(4)--x-x--x--4/-(4)--4/-(4)|
G#|-----4/-(4)--4/-(4)--x-x--x--4/-(4)--4/-(4)--x-x--x--4/-(4)--4/-(4)|
C#|-----2/-(2)--2/-(2)--x-x--x--2/-(2)--2/-(2)--x-x--x--2/-(2)--2/-(2)|
(u dont have to play the numbers between parentheses)
C#|----------------------|
F#|----------------------|
B |----------------------|
E |-----x-x--x--4-4/--3--|
G#|-----x-x--x--4-4/--3--|
C#|-----x-x--x--2-2/--1--|

Riff A: "I Feel Like S***..."

C#|----------------------------------------------------------------|
F#|----------------------------------------------------------------|
B |----------------------------------------------------------------| x 3
E |----------------------------------------------------------------|
G#|--3--------3--------3--------3--------3--------3----------------|
C#|----2--------2--------2--------2--------2--------2--------------|

Riff B: "I hope you know I pack a chainsaw..."

C#|-------------------------------|
F#|-------------------------------|
B |-------------------------------|  x 11
E |-------------------------------|
G#|--3----------3--------3--------|
C#|----2--2-0-2---2--0-2---2--2---|

C#|-------------------------------|
F#|-------------------------------|
B |-------------------------------|  x 11
E |-------------------------------|
G#|--3----------3--------3--------|
C#|----2--2-0-2---2--0-2---2--2---|

(When He says "Break" in "Break your F**king Face Tonight" Play This Once)

C#|-------|
F#|-------|
B |-------|
E |-------|
G#|--3----|
C#|--2----|
The order is:
Intro/Verse Riff
Chorus 1
Intro Verse Riff
Chorus 2
Riff A x3
Riff B x11  <--- watch for ending note
Riff B x11  <--- watch for ending note
Chorus 2
Suggest correction
Creating personal tab
Creating personal tab
You can edit any tab online and save it as your Personal.

You can edit, replace or remove any tab part or add personal notes – all changes will be seen only by you.

Personal tabs can be accessed anytime from any device, even offline.
Learn more »
comments
print report bad tab
4 comments total. Showing first comments.
+1 reply
Razor6199 10 Apr 12, 2016 06:29 PM, edited at 10:30 pm

Finally a good tab of the main riff (didn't look at the rest).

There's some other dumba** that has it like this: 244 then 3 (for the main riff). That's so dumb for missing the "0" before the 244 and more importantly the dang "3" all by itself (that second part is definitely not just the 5th string by itself. wow).

0 reply
mariomagogarc 10 Apr 27, 2016 05:45 AM

what means number between ()?

guest
You may want to rate the tab now too:
select rating
Wanna post a correction for this tab? Suggest correction