Oops, an error
Loading. Please wait.

Build A Bridge bass

version 1
version 1

Whole song

Interactive

2,233 views 3 this week
1 commentread comment
1 2 3 4 5
1 last vote to show rating
add to favorites
×
Save as Personal and add changes to this tab that will be seen only by you. Learn more ›
×
You can save this tab as Personal to edit and correct it or add notes. All changes will be seen only by you. Learn more »
launch autoscroll
font size
0
reset
guitar tuner
backing track
0:00
0:00
edit
Autoscroll
slow
fast
+/-
esc
set tempo
stop
intro and verse
------------------------------|
------------------------------|
--2-3-------------------------|
------3-3---------------------|

continue doin this till u reach the pre-chorus

pre-chorus
(only if you'll take a ride)
------------------------------|
------------------------------|
----9---11---9----------------|
--7---7----7------------------|

(go with me to the other side)
------------------------------|
------------------------------|
----9---11---9----------------|
--7---7----7------------------|

chorus(x3)
----------------------------------|
----------------------------------|
--7(x8)----5(x8)------------------|
------------------555534555555555-|

-------------------------------|
-------------------------------|
--7(x8)----5(x8)---------------|
--------------------5----------|(let it ring)

play the verse ,pre-chorus an chorus again...

bridge
-------------------------------|
-------------------------------|
----9----7---6------9----7---6-|
--7----5---4-----7----5---4----|

---------------------------------------|
---------------------------------------|
-------9--------9---------7--------6---|
--7777---777777----775555---554444--44-|(cotd)

-------------------------------|
-------------------------------|
-----------9--------9----------|
(cotd)7777---777777----775---4-|

chorus(acoustic) (x3)...(not sure of bass is played in this part,
but if u wanna play bass play this...)
---------------------------------|
---------------------------------|
--9(x8)-7(x8)--------------------|
--------------7(x16)-------------|

---------------------------------|
---------------------------------|
--9(x8)-7(x8)--------------------|
--------------7(let it ring)-----|

last chorus(x3)
---------------------------------|
---------------------------------|
--7(x8)-5(x8)--------------------|
--------------555534555555555----|

---------------------------------|
---------------------------------|
--7-----5------------------------|
--------------5------------------|

            
            
Suggest correction
Creating personal tab
Creating personal tab
You can edit any tab online and save it as your Personal.

You can edit, replace or remove any tab part or add personal notes – all changes will be seen only by you.

Personal tabs can be accessed anytime from any device, even offline.
Learn more »
Give kudos to tab author, rate the tab!
1 2 3 4 5
comments
print report bad tab
1 comment total.
0 reply
Slappytime 93 Nov 18, 2010 10:34 AM

what tuning is it ??
lame

guest
You may want to rate the tab now too:
select rating
Wanna post a correction for this tab? Suggest correction