Oops, an error
Loading. Please wait.
We have an official Faith tab made by UG professional guitarists. Check out the tab »
×
49,431 views 24 this week
7 commentsread comments
1 2 3 4 5
x 10
add to favorites
×
Save as Personal and add changes to this tab that will be seen only by you. Learn more ›
×
You can save this tab as Personal to edit and correct it or add notes. All changes will be seen only by you. Learn more »
launch autoscroll
font size
0
reset
how to read this tab
guitar tuner
edit
Autoscroll
slow
fast
+/-
esc
set tempo
stop
Author
Tuning: Standard (eadgbe)

[Intro]
e|--------------------------------------------------------------------|
B|--------------------------------------------------------------------|
G|--------------------------------------------------------------------|
D|---9-x-x-x-x-9-x-x-9-9-------9-x-x-x-x-9----------------------------|
A|---9-x-x-x-x-9-x-x-9-9—x3----9-x-x-x-x-9----------------------------|
E|---7-x-x-x-x-7-x-x-7-7-------7-x-x-x-x-7----------------------------|
 
[Verse]            
e|--------------------------------------------------------------------|
B|--------------------------------------------------------------------|
G|--------------------------------------------------------------------|
D|---9-x-x-x-x-9-x-x-9-9----7-x-x-x-x-7-x-x-7-7--9-x-x-x-x-9-x-x-9-9--|
A|---9-x-x-x-x-9-x-x-9-9-x2-7-x-x-x-x-7-x-x-7-7--9-x-x-x-x-9-x-x-9-9--|
E|---7-x-x-x-x-7-x-x-7-7----5-x-x-x-x-5-x-x-5-5--7-x-x-x-x-7-x-x-7-7--|

[Pre-Chorus]
e|--------------------------------------------------------------------|
B|--------------------------------------------------------------------|
G|--------------------------------------------------------------------|
D|-----9----------7----------9----------7----------9----------7-------|
A|---9---9------7---7------9---9------7---7------9---9------7---7-----|
E|-7--------7-5--------5-7--------7-5--------5-7--------7-5-----------|

e|-----------------3--------------------------------------------------|
B|-----------3h5p3----------------------------------------------------|
G|---------3----------------------------------------------------------|
D|-------5------------------------------------------------------------|
A|-----5--------------------------------------------------------------|
E|-5-3----------------------------------------------------------------|

[Chorus] (Heavy Distortion)
e|--------------------------------------------------------------------|
B|--------------------------------------------------------------------|
G|--------------------------------------------------------------------|
D|--9-x-x-x-x-9-x-x-9-9-----------------------------------------------|
A|--9-x-x-x-x-9-x-x-9-9-----------------------------------------------| (x3)
E|--7-x-x-x-x-7-x-x-7-7-----------------------------------------------|


************************************

| x  Dead note
| h  Hammer-on
| p  Pull-off

************************************

            
            
Suggest correction
Creating personal tab
Creating personal tab
You can edit any tab online and save it as your Personal.

You can edit, replace or remove any tab part or add personal notes – all changes will be seen only by you.

Personal tabs can be accessed anytime from any device, even offline.
Learn more »
comments
print report bad tab
7 comments total. Showing first comments.
0 reply
prophets 47 Jun 11, 2006 04:36 PM

Awesome tab, nice wrk!!, so much easier if ya keep it in standard tuning!!!, tnkx!!

0 reply
Carl the Mo$her 52 Jun 15, 2006 07:32 AM

great tab!

0 reply
Xironish 10 Feb 16, 2007 07:24 AM

Wrong wrong wrong! You can CLEARLY hear in the intro that there are more than three strings playing. It's played on all the four strings, just listen to the song and you'll hear light tones as well as dark.

guest
You may want to rate the tab now too:
select rating
Wanna post a correction for this tab? Suggest correction