Oops, an error
Loading. Please wait.

Faith Tab

version 6
version 6

Interactive

69,628 views 6 this week
1 commentread comment
1 2 3 4 5
x 10
add to favorites
launch autoscroll
font size
0
reset
how to read this tab
guitar tuner
Autoscroll
slow
fast
+/-
esc
set tempo
stop
#----------------------------------PLEASE NOTE--------------------------------#
#This file is the author's own work and represents their interpretation of the#
#song. You may only use this file for private study, scholarship, or research.#
#-----------------------------------------------------------------------------#

Date: Sun, 22 Jun 1980 10:25:17 -0700
From: JRBOY@swbell.net
Subject: TAB:"FAITH" BY "LIMP BIZKIT"

Faith as performed by Limp Bizkit
words and music by George Michaels
>From the album Three Dollar Bill Y'all$
Transcribed by Brock La Voie

Standard Tuning

The guitar starts off clean.


[Intro]

e|-7-X---X---X-X-7-7-X-X-7-X---X---X-X-7-7-X-X-7-X---X---X-X-7-7-X-X-|
B|-7-X---X---X-X-7-7-X-X-7-X---X---X-X-7-7-X-X-7-X---X---X-X-7-7-X-X-|
G|-8-X-8-X-8-X-X-8-8-X-X-8-X-8-X-8-X-X-8-8-X-X-8-X-8-X-8-X-X-8-8-X-X-|
D|-9-X-9-X-9-X-X-9-9-X-X-9-X-9-X-9-X-X-9-9-X-X-9-X-9-X-9-X-X-9-9-X-X-|
A|-9-X-9-X-9-X-X-9-9-X-X-9-X-9-X-9-X-X-9-9-X-X-9-X-9-X-9-X-X-9-9-X-X-|
E|-7-X-7-X-7-X-X-7-7-X-X-7-X-7-X-7-X-X-7-7-X-X-7-X-7-X-7-X-X-7-7-X-X-|

e|-7-X-X-X-X-X-X-7-|
B|-7-X-X-X-X-X-X-7-|
G|-8-X-X-X-X-X-X-8-|
D|-9-X-X-X-X-X-X-9-|
A|-9-X-X-X-X-X-X-9-|
E|-7-X-X-X-X-X-X-9-|

[Verse]

e|-7-X-X-X-X-7-X-X-7-7-X-X-7-X-X-X-X-X-X-7-7-X-X-|
B|-7-X-X-X-X-7-X-X-7-7-X-X-7-X-X-X-X-X-X-7-7-X-X-|
G|-8-X-X-X-X-8-X-X-8-8-X-X-8-X-X-X-X-X-X-8-8-X-X-|
D|-9-X-X-X-X-9-X-X-9-9-X-X-9-X-X-X-X-X-X-9-9-X-X-|
A|-9-X-X-X-X-9-X-X-9-9-X-X-9-X-X-X-X-X-X-9-9-X-X-|
E|-7-X-X-X-X-7-X-X-7-7-X-X-7-X-X-X-X-X-X-7-7-X-X-|

e|-5-X-5-X-5-X-X-5-5-X-X-7-X-X-X-X-7-X-X-7-7-|
B|-5-X-5-X-5-X-X-5-5-X-X-7-X-X-X-X-7-X-X-7-7-|
G|-6-X-6-X-6-X-X-6-6-X-X-8-X-X-X-X-8-X-X-8-8-|
D|-7-X-7-X-7-X-X-7-7-X-X-9-X-X-X-X-9-X-X-9-9-|
A|-7-X-7-X-7-X-X-7-7-X-X-9-X-X-X-X-9-X-X-9-9-|
E|-5-X-5-X-5-X-X-5-5-X-X-7-X-X-X-X-7-X-X-7-7-|

[Pre-Chorus]

e|-----------------------------------------------------------------------|
B|----------------------------------------------5----------------------5-|
G|------8-------6-------7-------4------6----------------4----3-3h4p3-4---|
D|--------9-------7-------8-------5------7--------6-------5--------------|
A|---9--------7-------8-------5------7--------6-------5------------------|
E|-7--------5-------6-------3-------5-------4-------3--------------------|

[Chorus]

e|------------------------------|
B|------------------------------|
G|------------------------------|
D|-9-9--9-9--9-9--9-9-----------|
A|-9-9--9-9--9-9--9-9-----------|
E|-7-7--7-7--7-7--7-7--7h9p7----|(x4)

On the second prechorus, throw in these hammer on's in the needed
places:

e|--------|      e|--------|
B|--------|      B|--------|
G|-6h8p6--|      G|-7h9p7--|
D|--------|      D|--------|
A|--------|      A|--------|
E|--------|      E|--------|


Well, I guess it would be nice,
If I could touch your body,
I know not everybody,
Has got a body like me,
But I gotta think twice,
Before I give my heart away,
And I know all the games you play,
Cause I play them too,
Oh, but I need some time off from that emotion,
Time to pick my heart up off the floor,
When that love comes down without devotion,
Well it takes a strong man, baby, but I'm showing you that door

I gotta have faith

Baby, I know you're asking me to stay,
Saying please please please don't go away,
Cause you're giving me the blues,
Baby, you remind me of the words you say,
Can't help but think of yesterday,
And I know you would tie me down to the loverboy blues,
Before this river becomes an ocean,
Before you pick my heart up off the floor,
When that love comes down without devotion,
Well, it takes a strong man baby but I'm showing you that door

I gotta have faith

Get the fuck off!

I gotta have faith!

Comments, etc. jrboy@swbell.net



************************************

| h  Hammer-on
| p  Pull-off
| X  dead note

************************************
Suggest correction
comments
print report bad tab
1 comment total.
0 reply
ignored-igorot 0 Sep 29, 2002 08:00 PM

...

guest
You may want to rate the tab now too:
select rating
Wanna post a correction for this tab? Suggest correction