Oops, an error
Loading. Please wait.

Get A Life Tab

4,354 views 3 this week
no commentswrite comment
1 2 3 4 5
x 4
add to favorites
launch autoscroll
font size
0
reset
how to read this tab
guitar tuner
Autoscroll
slow
fast
+/-
esc
set tempo
stop
Help us to improve Ultimate-Guitar.com Take our survey!
×
Tuning
B F# B E G# C#
Limp Bizkit - Get a life

If you have any questions you can mail me at: bubu333 [at] citromail [dot] hu

Tuning: Drop B (B F# B E G# C#)


Verse - With heavy overdrive

||----------------------|-------------------|-------------------------|-------------------||
||----------------------|-------------------|--15x8~~~~~~~~b16~~r15~~-|--1515151515151515-||
||----------------------|-------------------|-------------------------|-------------------||
||----- repeat x3 ------|-------------------|------- repeat x4 -------|-------------------||
||----------------------|-------------------|-------------------------|-------------------||
||-0-0---0-0-----0-0----|-0-0---0-0-----0-0-|-0----0-0---0-0------0-0-|-------------------||
   . .   . .     . .      . .   . .     . .   .    . .   . .      . .


Chorus (far from perfect) - With heavy overdrive 

  -1 0 -1 0  0 0-1  0 0-1 -1 0 -1 0 0 0-1  0 0 0 0 0 +2 0      <--tremolo or octave shifter
||--------------------------------------------------------|
||--------------------------------------------------------|
||--------------------------------------------------------|
||-0-0--0-0--3-3/0--3-3/0--0-0--0-0-0-0-0--15151515151515-|
||-0-0--0-0--3-3/0--3-3/0--0-0--0-0-0-0-0-----------------|
||-0-0--0-0--3-3/0--3-3/0--0-0--0-0-0-0-0-----------------|
   .    .    .      .      .    .


 -1 0 -1 0  0 0-1  0 0-1 -1 0 -1 0 0 0-1   0 0 0 0 0 0 0 0     <--tremolo or octave shifter
|-----------------------------------------------------------||
|-----------------------------------------------------------||
|-----------------------------------------------------------||
|-0-0--0-0--3-3/0--3-3/0--0-0--0-0-0-0-0--1212121212121212\-||
|-0-0--0-0--3-3/0--3-3/0--0-0--0-0-0-0-0--------------------||
|-0-0--0-0--3-3/0--3-3/0--0-0--0-0-0-0-0--------------------||
  .    .    .      .      .    .


Bridge - With slight overdrive and delay

|--------10-8-7-5333--------10-8-7-5333--------5-3-2-3555--------5-3-2-3555-|
|---------------------------------------------------------------------------|
|-7--7-7-------------7--7-7-------------5--5-5------------5--5-5------------|
|-7--7-7-------------7--7-7-------------5--5-5------------5--5-5------------|
|-5--5-5-------------5--5-5-------------3--3-3------------3--3-3------------|
|---------------------------------------------------------------------------|


Solo - With delay (2 or 3 echoes and delay time equals picking speed)

|-22-20-19-17-15-14-12-10-8-7-5-3-2---------------2-3-5-7-8-10-12-14-15-17-19-20-22-|
|-----------------------------------5-3---3---3-5-----------------------------------|
|---------------------------------------2---2---------------------------------------|
|-----------------------------------------------------------------------------------|
|-----------------------------------------------------------------------------------|
|-----------------------------------------------------------------------------------|


Outro - With delay (2 or 3 echoes and delay time equals picking speed)

|-18-17--18--18/21--20--23-----------------18-17--18--18/21---------------------------------|
|--------------------------21-20-19-20-19--------------------19-18--19-18--19-18--19-18--19-|
|-------------------------------------------------------------------------------------------|
|-------------------------------------------------------------------------------------------|
|-------------------------------------------------------------------------------------------|
|-------------------------------------------------------------------------------------------|

Enjoy!
Suggest correction
comments
print report bad tab
guest
You may want to rate the tab now too:
select rating
Wanna post a correction for this tab? Suggest correction