Oops, an error
Loading. Please wait.

Gold Cobra tab

version 2
version 2

Whole song

Interactive

967 views 3 this week
no commentswrite comment
1 2 3 4 5
2 more votes to show rating
add to favorites
×
Save as Personal and add changes to this tab that will be seen only by you. Learn more ›
×
You can save this tab as Personal to edit and correct it or add notes. All changes will be seen only by you. Learn more »
launch autoscroll
font size
0
reset
how to read this tab
guitar tuner
edit
Autoscroll
slow
fast
+/-
esc
set tempo
stop
Author
-------------------------------------------------------------------------------
                             Gold Cobra - Limp Bizkit
-------------------------------------------------------------------------------
Tabbed by:okman
Artist:Limp Bizkit
Album:Gold Cobra
Song:Gold Cobra

Tuning:C# Tuning (C# G# E B F# C#)
  00:00-00:36        Wes Borland (Lead Guitar)
C#|---------------------------------------------------------------------------|
G#|---------------------------------------------------------------------------|
E |---------------------------------------------------------------------------|
B |---------------------------------------------------------------------------|x6
F#|----00-/777 /77777 /777--00-/777-/77777--7* -------------------------------|
C#|----00 ------------------00-----------------1p0 ---------------------------|
  00:36-00:58
C#|---------------------------------------------------------------------------|
G#|---------------------------------------------------------------------------|
E |---------------------------------------------------------------------------|
B |---------------/55555------------------------------------------------------|x4
F#|--0----0-0-00-0/55555------------------------------------------------------|
C#|--0-3* 0-0-00-0/33333------------------------------------------------------|
  00:58-01:08
C#|---------------------------------------------------------------------------|
G#|---------------------------------------------------------------------------|
E |---------------------------------------------------------------------------|
B |---------------------------------------------------------------------------|x1
F#|--00-/777 /77777 /777-00--/77777777777-00-/999999/111111111111/12121212-12*|
C#|--00------------------00---------------00----------------------------------|
  01:08-01:31
C#|---------------------------------------------------------------------------|
G#|---------------------------------------------------------------------------|
E |---------------------------------------------------------------------------|
B |--------/555555\33-3-7/9/1010--------/555555\33-9/10/12/17-------------------|x2
F#|--00-0-0/555555\33-3-7/9/1010--00-0 0/555555\33-9/10/12/17-------------------|
C#|--00-0-0/333333\11-1-5/7/8-8---00-0-0/333333\11 7/8-/10/15-------------------|
  01:31-01:41 (Sampled)
C#|-----16--------------16-------16----------------16-------------------------|
G#|-17br--17h18p17 17br-----17br ---17h18p17 17br-----------------------------|
E |---------------------------------------------------------------------------|
B |---------------------------------------------------------------------------|x2
F#|---------------------------------------------------------------------------|
C#|---------------------------------------------------------------------------|
  01:31-01:41
C#|---------------------------------------------------------------------------|
G#|---------------------------------------------------------------------------|
E |---------------------------------------------------------------------------|
B |---------------------------------------------------------------------------|x2
F#|--00-/777 /77777 /777 00 /777 /77777 7*------------------------------------|
C#|--00------------------00----------------1p0--------------------------------|
  01:41-02:04
C#|---------------------------------------------------------------------------|
G#|---------------------------------------------------------------------------|
E |---------------------------------------------------------------------------|
B |---------------/55555------------------------------------------------------|x2
F#|--0----0-0-00-0/55555------------------------------------------------------|
C#|--0-3* 0-0-00 0/33333------------------------------------------------------|
  02:04-02:10
C#|---------------------------------------------------------------------------|
G#|---------------------------------------------------------------------------|
E |---------------------------------------------------------------------------|
B |---------------------------------------------------------------------------|x1
F#|--00-/777 /77777-/777-00-/777-/77777-7*------------------------------------|
C#|--00------------------00----------------1p0--------------------------------|
  02:10-02:14
C#|---------------------------------------------------------------------------|
G#|---------------------------------------------------------------------------|
E |---------------------------------------------------------------------------|
B |---------------------------------------------------------------------------|x1
F#|--00-/777-/77777-/777-00-/777-/77777-12*-------------------------------------|
C#|--00------------------00---------------------------------------------------|
  02:14-02:37
C#|---------------------------------------------------------------------------|
G#|---------------------------------------------------------------------------|
E |---------------------------------------------------------------------------|
B |--------/555555\33-3-7/9/1010--------/555555\33-9/10/12/17-----------------|x2
F#|--00-0-0/555555\33-3-7/9/1010--00-0 0/555555\33-9/10/12/17-----------------|
C#|--00-0-0/333333\11-1-5/7/8-8---00-0-0/333333\11 7/8-/10/15-----------------|
  02:37-02:59 (Break)
C#|---------------------------------------------------------------------------|
G#|---------------------------------------------------------------------------|
E |---------------------------------------------------------------------------|
B |---------------------------------------------------------------------------|
F#|---------------------------------------------------------------------------|
C#|---------------------------------------------------------------------------|
  02:59-03:21
C#|---------------------------------------------------------------------------|
G#|---------------------------------------------------------------------------|
E |---------------------------------------------------------------------------|
B |--------/555555\33-3-7/9/1010--------/555555\33-9/10/12/17-----------------|x2
F#|--00-0-0/555555\33-3-7/9/1010--00-0 0/555555\33-9/10/12/17-----------------|
C#|--00-0-0/333333\11-1-5/7/8-8---00-0-0/333333\11 7/8-/10/15-----------------|

  03:21-03:43 (Sampled)
C#|-----16--------------16-------16----------------16-------------------------|
G#|-17br--17h18p17 17br-----17br ---17h18p17 17br-----------------------------|
E |---------------------------------------------------------------------------|
B |---------------------------------------------------------------------------|x2
F#|---------------------------------------------------------------------------|
C#|---------------------------------------------------------------------------|
  03:21-03:43
C#|---------------------------------------------------------------------------|
G#|---------------------------------------------------------------------------|
E |---------------------------------------------------------------------------|
B |---------------------------------------------------------------------------|x6
F#|--00-/777 /77777 /777 00 /777 /77777 7*------------------------------------|
C#|--00------------------00----------------1p0--------------------------------|



************************************

| /   slide up
| \   slide down
| h   hammer-on
| p   pull-off
| ~   vibrato
| *   harmonic
| x   Mute note
| b   Bend
| pb  Pre-bend
| br  Bend release
| pbr Pre-bend release
| brb Bend release bend

************************************
Suggest correction
Creating personal tab
Creating personal tab
You can edit any tab online and save it as your Personal.

You can edit, replace or remove any tab part or add personal notes – all changes will be seen only by you.

Personal tabs can be accessed anytime from any device, even offline.
Learn more »
Give kudos to tab author, rate the tab!
1 2 3 4 5
comments
print report bad tab
guest
You may want to rate the tab now too:
select rating
Wanna post a correction for this tab? Suggest correction