Oops, an error
Loading. Please wait.

Hold On Tab

version 4
version 4

Whole song

Interactive

9,649 views 3 this week
3 commentsread comments
1 2 3 4 5
x 13
add to favorites
launch autoscroll
font size
0
reset
how to read this tab
guitar tuner
×
Best way to learn
"Hold On"
Autoscroll
slow
fast
+/-
esc
set tempo
stop
Artist:Limp Bizkit
Album:Chocolate Starfish And Hot Dog Flavoured Water
Song:Hold On
A Tab By William Soans(snoopdog778@hotmail.com)

Many of the tabs are not that aqurate.Well here it is........
Tuning:E A D G B E

e-------------------------------------|
b-------------------------------------|
g-------------------------------------|
d--------6----6------6------6-6h7h6---|
a----------------4------2-------------|
e-----4----2--------------------------|

e-------------------------------------|
b-------------------------------------|
g-------------------------------------|
d--------6----6------6------6-6h4h6---|
a----------------4------2-------------|
e-----4----2--------------------------|

If it needs to have any changes go ahead man..cuase there are some other parts but i 
seem to get them right.
I love this song......I think its the best in the album
Play and ENJOY
Suggest correction
comments
print report bad tab
3 comments total.
+1 reply
BesserPunk 34 Mar 06, 2006 10:49 AM

2nd Guitar plays this under the melody. I couldn't figure out what they play at the end of Riff2 but it sounds good anyway...

Riff1
E -7---6---4-----------------7---6---4------------
B -----------7-6-4--7---6-------------7-6-4-7---6-

Riff2
E -7---6---4-------12--11----6-7-9-7-6--?---------
B -----------7-6-4-------------------------?-?-?--

0 reply
Xironish 10 Jan 31, 2007 02:19 AM

Wrong tuning sorry. It's Drop C#.

0 reply
chris_red 175 Sep 01, 2007 01:32 PM

this is perfect, good job

guest
You may want to rate the tab now too:
select rating
Wanna post a correction for this tab? Suggest correction